Oops, an error
Loading. Please wait.

Radio Capital tab

359 views 1 this week
no commentswrite comment
1 2 3 4 5
3 more votes to show rating
add to favorites
×
Save as Personal and add changes to this tab that will be seen only by you. Learn more ›
×
You can save this tab as Personal to edit and correct it or add notes. All changes will be seen only by you. Learn more »
launch autoscroll
font size
0
reset
how to read this tab
guitar tuner
edit
Autoscroll
slow
fast
+/-
esc
set tempo
stop
Afinación estándar de EADGBe.


Intro:

|---------|
|---10----|   x8
|---9-----|
|---7-----|
|---------|
|---------|


Verso:

 Esta es           candado   es nuestra
 nuestra fiesta   y cresta    fiesta
|----------------------------------------------------|
|--10---------10----------10--------10-----13--15----|  x4
|--9----------9-----------9---------9------12--14----|
|--7----------7-----------7---------7------10--12----|
|----------------------------------------------------|
|----------------------------------------------------|


Puente:


|---------------------------------|
|---------------------------------|
|---------------------------------| x8
|-----------------------------5p7-|
|-------7------5---5-5-5p7-7------|
|--5-5-----8-5--------------------|


Y con la parte de "Gabba Gabba Hey.." va:


|---------------------------------|
|---------------------------------|  x4
|---------------------------------|
|-----------------------5p7-------|
|-----7-----5---5-5-5p7-----------|
|--5-----8------------------------|


Verso 2:

Ahora va así:


|---------------------|
|--10---10----13-15---|
|--9----9-----12-14---|  x8
|--7----7-----10-12---|
|---------------------|
|---------------------|


Y volvemos al puente:

Puente:


|---------------------------------|
|---------------------------------|
|---------------------------------| x8
|-----------------------------5p7-|
|-------7------5---5-5-5p7-7------|
|--5-5-----8-5--------------------|


y al Gabba Hey.


|---------------------------------|
|---------------------------------|  x4
|---------------------------------|
|-----------------------5p7-------|
|-----7-----5---5-5-5p7-----------|
|--5-----8------------------------|


Después para terminar la canción va


|---------------------|
|--10---10----13-15---|
|--9----9-----12-14---|  x?
|--7----7-----10-12---|
|---------------------|
|---------------------|


Y luego solo juegas con el rasgueo de esos acordes hasta el final.


-------------------------------------------------------------------------


La segunda guitarra va con:

Am                  Am             Am                  Am
Esta es nuestra fiesta, candado y cresta, nuestra fiesta
      C D
Nuestra!

Am                Am             Am                   Am
Este es nuestro vals, Radio Capital, este es nuestro vals
        C D
Radio Capital!

Am            Am               Am               Am
Nuestra fiesta, candado y cresta, es nuestra fiesta
    C D
Nuestra!

Am          Am               Am               Am
Nuestra fiesta candado y cresta, nuestra fiesta
    C D
Nuestra!


Am, C, D x8


Am
Gabba Gabba Hey!

C             D
Gabba Gabba Gabba Hey!

Am
Gabba Gabba Hey!

C             D
Gabba Gabba Gabba Hey!

Am
Gabba Gabba Hey!

C             D
Gabba Gabba Gabba Hey!

Am
Gabba Gabba Hey!!


Am                  Am  C D          Am                Am
Esta es nuestra fiesta, candado y cresta, nuestra fiesta
      C D
Nuestra!

Am                Am  C D         Am                   Am
Este es nuestro vals, Radio Capital, este es nuestro vals
        C D
Radio Capital!

Am            Am    C D        Am               Am
Nuestra fiesta, candado y cresta, es nuestra fiesta
    C D
Nuestra!

Am          Am     C D     Am               Am
Nuestra fiesta candado y cresta, nuestra fiesta
    C D
Nuestra!


Am, C, D x8


Am
Gabba Gabba Hey!

C             D
Gabba Gabba Gabba Hey!

Am
Gabba Gabba Hey!

C             D
Gabba Gabba Gabba Hey!

Am
Gabba Gabba Hey!

C             D
Gabba Gabba Gabba Hey!

Am
Gabba Gabba Hey!!


Y tambien termina con juego de acordes con

Am, C, D.


Correcciones o comentarios a arnaldojvg@

            
            
Suggest correction
Creating personal tab
Creating personal tab
You can edit any tab online and save it as your Personal.

You can edit, replace or remove any tab part or add personal notes – all changes will be seen only by you.

Personal tabs can be accessed anytime from any device, even offline.
Learn more »
Give kudos to tab author, rate the tab!
1 2 3 4 5
comments
print report bad tab
guest
Wanna post a correction for this tab? Suggest correction