Oops, an error
Loading. Please wait.

Buey (¿que Mierda Es?) tab

10 views 1 this week
no commentswrite comment
1 2 3 4 5
3 more votes to show rating
add to favorites
×
Save as Personal and add changes to this tab that will be seen only by you. Learn more ›
×
You can save this tab as Personal to edit and correct it or add notes. All changes will be seen only by you. Learn more »
launch autoscroll
font size
0
reset
how to read this tab
guitar tuner
edit
Autoscroll
slow
fast
+/-
esc
set tempo
stop
Buemo... Aca va la versión posta, suena de 10...

------------------------------------------------
            SI                        LA
e|-----|--0--|-----|-----|    e|-----|-----|-----|
b|-----|--0--|-----|--0--|    b|-----|--0--|-----|
g|-----|--0--|-----|--0--|    g|-----|--0--|-----|
D|-----|--0--|-----|--0--|    D|-----|--0--|-----|
A|-----|--0--|-----|-----|    A|-----|-----|-----|
E|-----|--0--|-----|-----|    E|-----|-----|-----|

           MI7
e|-----|-----|-----|
b|-----|-----|-----|
g|--0--|-----|-----|
D|-----|-----|-----|
A|-----|--0--|-----|
E|-----|-----|-----|

h: hammer on (golpear la cuerda)
-------------------------------------------------

  Intro:

e|-0-0-0-0-0-0-0------0-0-0----0-0-0------0-0-0-0-0-0--0-----|
b|--3---3---3---3------3---3----3---3------3---3---3----3-0--|
g|-----------------0h1-------0h1-------0h1-------------------|
D|-----------------------------------------------------------|
A|-----------------0h2-------0h2-------0h2-------------------|
E|-----------------------------------------------------------|


              SI   LA
Tenia ojos de buey
               MI7
pero no era buey
              SI   LA
tenia boca de buey
               MI7
pero no era buey
                SI   LA
tenia orejas de buey
               MI7
pero no era buey
                SI   LA
tenia cabeza de buey
               MI7
pero no era buey
                SI   LA
tenia cuello de buey
               MI7
pero no era buey
                 SI   LA
tenie espalda de buey
               MI7
pero no era buey
              SI   LA
caminaba como buey
               MI7
pero no era buey
               SI   LA
tenia ideas de buey
               MI7
pero no era buey
             SI   LA
se reia como buey
               MI7
pero no era buey
               SI   LA
chamuyaba como buey
               MI7
pero no era buey
               SI   LA
se vestia como buey
               MI7
pero no era buey
                     SI   LA
todos decian que era buey
               MI7
pero no era buey

MI7
la gente sorprendida lo miraba no
una cosa tan rara caminando por la calle suelta
medio peligroso, por lo menos en mi barrio no,uuhhh
nadie sabia si era humano, animal, por eso todos
lo miraban y se asustaban no, eaaaaahhh
hasta yo temblando de miedo me preguntaba
la gente temblando de miedo se preguntaba
                       SI  LA
si no es un bueeeeeeeeyy
                 MI7
que mierda es????  no??

----------------------------------------------------------

Espero que les sirva y a practicar que es muy fácil
cualquier duda y/o comentario escribanme... mauri_rodas@

Y QUE SEA ROCK!
Suggest correction
Creating personal tab
Creating personal tab
You can edit any tab online and save it as your Personal.

You can edit, replace or remove any tab part or add personal notes – all changes will be seen only by you.

Personal tabs can be accessed anytime from any device, even offline.
Learn more »
Give kudos to tab author, rate the tab!
1 2 3 4 5
comments
print report bad tab
guest
Wanna post a correction for this tab? Suggest correction