Oops, an error
Loading. Please wait.

El Árbol De La Vida tab

version 1
version 1

Whole song

104 views 1 this week
no commentswrite comment
1 2 3 4 5
3 more votes to show rating
add to favorites
×
Save as Personal and add changes to this tab that will be seen only by you. Learn more ›
×
You can save this tab as Personal to edit and correct it or add notes. All changes will be seen only by you. Learn more »
launch autoscroll
font size
0
reset
how to read this tab
guitar tuner
edit
Autoscroll
slow
fast
+/-
esc
set tempo
stop
Intro: MIm RE DO SI7

1era Guitarra (hace arpegio)

1/-------0-------/-------2-------/-------0-------/--------2-------/
2/-----0---0---0-/-----3---3---3-/-----1---1---1-/------0---0---2-/
3/---0-------0---/---2-------2---/---0-------0---/----2-------2---/
4/---------------/-0-------------/---------------/----------------/
5/-2-------------/---------------/-3-------------/--2-------------/
6/---------------/---------------/---------------/----------------/

2da Guitarra

1/--------------------------------------/
2/--------------------------------------/
3/--------------------------------------/
4/---------7-9-10-9-7-------------------/
5/--7-9-10-------------10-9-7--10-9-7-6-/
6/--------------------------------------/

 MIm                RE
Después de tanto vagar por las calles
DO             SI7
la ciudad te parece tan gris;
mejor hacerse un viaje al campo y
sentirse libre para poder sentir.

Este mensaje no sera en vano,
cuando entiendas y puedas decir que
en el árbol de la vida
ninguna fruta esta prohibida.

MIm   RE   DO  SI7  /esto se toca mas rapido que en los versos/

MIm        RE
Aún veo llover en tu mente
DO                    SI7
hace unos días que no te sale el sol,
no me gusta verte tan inconciente,
esta en tu mente la liberación.

Quiero que todo salga bien,
te quiero ver triunfando en la vida
todos tenemos esos dias en que
nos estalla el calefón.

MIm  RE  DO SI7

MIm              RE
Arbol de la vida dame hoy
DO          SI7
dame hoy tu fruta divina...


La 2da guitarra puede acompañar todo el tema

Cualquier consulta matdanubio@

            
            
Suggest correction
Creating personal tab
Creating personal tab
You can edit any tab online and save it as your Personal.

You can edit, replace or remove any tab part or add personal notes – all changes will be seen only by you.

Personal tabs can be accessed anytime from any device, even offline.
Learn more »
Give kudos to tab author, rate the tab!
1 2 3 4 5
comments
print report bad tab
guest
Wanna post a correction for this tab? Suggest correction