Oops, an error
Loading. Please wait.

El Árbol De La Vida tab

version 2
version 2

Whole song

68 views 1 this week
no commentswrite comment
1 2 3 4 5
3 more votes to show rating
add to favorites
×
Save as Personal and add changes to this tab that will be seen only by you. Learn more ›
×
You can save this tab as Personal to edit and correct it or add notes. All changes will be seen only by you. Learn more »
launch autoscroll
font size
0
reset
how to read this tab
guitar tuner
edit
Autoscroll
slow
fast
+/-
esc
set tempo
stop
Esta es la intro q hace el piano pasada a la viola


e|--10--7---10/12---10--7---------------------
B|----------------------------7--10--12--(10)-
G|--------------------------------------------
D|--------------------------------------------
A|--------------------------------------------
E|--------------------------------------------

e|----------------------------------------
B|---10--12-(13)-(12)-(10)-7--(7)---------
G|----------------------------------------
D|----------------------------------------
A|----------------------------------------
E|----------------------------------------


e|--10--7---10/12---10--7---------------------------
B|----------------------------7--10--12--(10)-------
G|--------------------------------------------------
D|--------------------------------------------------
A|--------------------------------------------------
E|--------------------------------------------------

e|---8--10-(12)-(14)-(12)-(11)---------------------
B|-------------------------------------(12)--------
G|-------------------------------7/9----------11---
D|-------------------------------------------------
A|-------------------------------------------------
E|-------------------------------------------------


Esta parte la toca el bajo, la viola toca la vuelta (Em-D-C-B7)

e|---------------------------------------
B|---------------------------------------
G|---------------------------------------
D|--(2)-----------2----------------------
A|------2--2/(5)-----(3)--5--2--0--2-----
E|---------------------------------------


e|------------------------------------------------------
B|------------------------------------------------------
G|------------------------------------------------------
D|--(2)-2------------------------------ ----------------
A|---------5--0--(3)--5p3--2--0--2--0--3--2--0----------
E|----------------------------------------------3--0----
                                   engancha con el punteo

     Em          D          C           B7
e|------------------------------------------------------
B|------------------------------------------------------
G|-----------2--4--5--4--2------------------------------
D|--2--4--5-----------------5--4--2--4/5--4--2--1-------
A|------------------------------------------------------
E|------------------------------------------------------
     Em          D          C           B7       Em
e|------------------------------------------------------
B|------------------------------------------------------
G|-----------2--4--5--4--2------------------------------
D|--2--4--5-----------------5--4--2--4/5--4--2--1-(2)---
A|------------------------------------------------------
E|------------------------------------------------------
                                  acá engancha con el verso


Em                   D
Despues de tanto vagar por las calles
C                    B7
La ciudad te parece tan gris;
Em                   D
mejor hacerse un viaje al campo
C                    B7
y sentirse libre para poder sentir


Em                   D
Esto mensaje no será en vano
C                    B7
cuando entiendas y puedas decir que
Em                   D
en el árbol de la vida
C                    B7
ninguna fruta esta prohibida


Em D C B7
e|--10--7--10/12--10---------7-----7--(5)--------
B|--------------------7--10-----5----------7--8--
G|----------------------------------------------- X4
D|-----------------------------------------------
A|-----------------------------------------------
E|-----------------------------------------------


Em                  D
Aun veo llover en tu mente
C                   B7
hace unos días que no te sale el sol,
Em                  D
no me gusta verte tan inconsciente,
C                   B7
Esta en tu mente la liberación.


Em                    D
Quiero que todo te salga bien,
C                     B7
te quiero ver triunfando en la vida,
Em                    D
todos tenemos esos días en que,
C                 B7
Nos estalla el calefón.


Em D C B7
e|--10--7--10/12--10---------7-----7--(5)--------
B|--------------------7--10-----5----------7--8--
G|----------------------------------------------- X4
D|-----------------------------------------------
A|-----------------------------------------------
E|-----------------------------------------------


Em D C B7
nos estalla
Em D C B7
nos estalla
Em D C B7
el calefón


Em          D          C           B7
e|---------------------------------------------------
B|---------------------------------------------------
G|-----------2--4--5--4--2--------------------------- X4
D|--2--4--5-----------------5--4--2--4/5--4--2--1----
A|---------------------------------------------------
E|---------------------------------------------------


Em                  D
Arbol de la vida dame hoy
C              B7
dame hoy tu fruta divina


(*esto lo repite hasta el final las dos violas terminan en Em)


Bueno acá les dejo la versión completa del tema. Un saludo para
toda la villa del Brazo y aguante CORTE LOKO R?N?R la mejor!!!

            
            
Suggest correction
Creating personal tab
Creating personal tab
You can edit any tab online and save it as your Personal.

You can edit, replace or remove any tab part or add personal notes – all changes will be seen only by you.

Personal tabs can be accessed anytime from any device, even offline.
Learn more »
Give kudos to tab author, rate the tab!
1 2 3 4 5
comments
print report bad tab
guest
Wanna post a correction for this tab? Suggest correction