Oops, an error
Loading. Please wait.

Legalízenla tab

version 4
version 4

Whole song

65 views 1 this week
no commentswrite comment
1 2 3 4 5
3 more votes to show rating
add to favorites
×
Save as Personal and add changes to this tab that will be seen only by you. Learn more ›
×
You can save this tab as Personal to edit and correct it or add notes. All changes will be seen only by you. Learn more »
launch autoscroll
font size
0
reset
how to read this tab
guitar tuner
edit
Autoscroll
slow
fast
+/-
esc
set tempo
stop
Am
Hubo tiempos de guerra,
Em
tiempos de paz,
        Dm
hubo un tiempo
en que era ilegal.
        Am
Pero hermano
         Em
nuestra mente cambió,
     Dm
no podemos seguir
con esta tradición.
Am              Em
Son tiempos de cambio
y el tiempo
   Dm
al mismo tiempo cambió
Am            Em         Dm        Em
Si hasta la terrible ley seca cayó.

            Am Em Dm
Legalízenla
            Am Em Dm
Legalízenla

Vos tenés conciencia de saber,
que está bien y que está mal
la policía debe llevarte
si robás o asesinás,
pero no entiendo
por qué no estoy en libertad,
sólo por fumar
la hierba de la paz.

            Am Em Dm
Legalízenla
            Am Em Dm
Legalízenla

e--------7/8-7--------*------7/8-7--------*---------------*----*
b-----10-------10-----*---10-------10-----*-6-6-6-6--66/8-*6-5-*
g--9---------------9--*-9--------------9--*---------------*----*
d---------------------*-------------------*---------------*----*
a---------------------*-------------------*---------------*----*
e---------------------*-------------------*---------------*----*


e--------7/8-7--------*------7/8-7--------*---------------*
b-----10-------10-----*---10-------10-----*-6-6-6-6--66/8-*
g--9---------------9--*-9--------------9--*---------------*
d---------------------*-------------------*---------------*
a---------------------*-------------------*---------------*
e---------------------*-------------------*---------------*


e-----------------------------------------------------
b-5-5/6--3-3/5----------------------------------------
g---------------5-5/7--4-4/5--2-2/4--2-0-0/2--2-4-4/5-
d-----------------------------------------------------
a-----------------------------------------------------
e-----------------------------------------------------

----------------------------*
----------------------------*
-4-5-5/7--5-7-7/9--7-9-9/10-*
----------------------------*
----------------------------*
----------------------------*


--------7/8-7--------*--------7/8-7------*----------------*
----10--------10-----*----10-------10----*--8--6666--888--*
--9---------------9--*--9--------------9-*----------------*
---------------------*-------------------*----------------*
---------------------*-------------------*----------------*
---------------------*-------------------*----------------*


SI mis cigarros
tienen otro relleno
por qué me miras mal.
SI de LA tierra
crece hierba santa,
por qué no la puedo fumar.
Pagamos precios
y riesgos muy caros
para conseguir,
lo que la naturaleza nos dá
nadie nos debería prohibir.

Yo canto esto
para que me escuchen
y se den cuenta
que hay mucha gente
que no quiere estar
presa por fumar hierba.
Somos una nueva raza,
una nueva generación
pongamos fín a esta tradición.

            Am Em Dm
Legalízenla
            Am Em Dm
Legalízenla

Final:(Am Em Dm)x2 Am

aca les dejo este tema re piola nos vemos amiguitos
espero que les guste

            
            
Suggest correction
Creating personal tab
Creating personal tab
You can edit any tab online and save it as your Personal.

You can edit, replace or remove any tab part or add personal notes – all changes will be seen only by you.

Personal tabs can be accessed anytime from any device, even offline.
Learn more »
Give kudos to tab author, rate the tab!
1 2 3 4 5
comments
print report bad tab
guest
Wanna post a correction for this tab? Suggest correction