Oops, an error
Loading. Please wait.

Todavía Estas Ahí bass

version 1
version 1

Whole song

14 views 1 this week
no commentswrite comment
1 2 3 4 5
3 more votes to show rating
add to favorites
×
Save as Personal and add changes to this tab that will be seen only by you. Learn more ›
×
You can save this tab as Personal to edit and correct it or add notes. All changes will be seen only by you. Learn more »
launch autoscroll
font size
0
reset
guitar tuner
edit
Autoscroll
slow
fast
+/-
esc
set tempo
stop
TODAVIA ESTAS AHI - VIEJAS LOCAS

  riff  1
G|------------------------------------------
D|------------------------------------------
A|------------------------------------------
E|-3-3-5-6-5--3-5-6-5---3-3-5-6-5--3-5-6-5--

   riff 2
G|------------------------------------------
D|-5---------5-5---------5--------5-5-------
A|---7-5-7-------7-5-7-----7-5-7------7-5-7-
E|------------------------------------------

   riff 3
G|-----------------------------------------
D|-----------------------------------3-4-5-
A|-3--------3-3--------3--------3-5--------
E|---5-3-5------5-3-5----5-3-5-------------


Intro:

Riff 1

Si ya pasaron las seis y no sabes donde ir,
el rock and roll se acabó y no te podés dormir,
y no sabés que hacer, y no sabés donde ir,
y no sabés que hacer, si todavía estás ahí,
si todavía estás ahí, si todavía estás ahí.

Riff 2:

Si ya pasaron las seis y no sabes donde ir,
el rock and roll se acabó y no te podés dormir,
y no sabés que hacer, y no sabés donde ir,
y no sabés que hacer, si todavía estás ahí,
si todavía estás ahí, si todavía estás ahí.


El sol se puso otra vez, la gente sale a comprar,
y vos tomandote un vino porque querés bajar,
nos quieren asustar y vos no los dejas,
te quieren asustar porque te ven muy mal,
porque te ven muy mal, porque te ven muy mal.


Solo de guitarra:

Riff 2 - Riff 3 - Riff 2 - Riff 3 - Riff 2


Riff 2:

El sol se puso otra vez, la gente sale a comprar,
y vos tomandote un vino porque querés bajar,
te quieren asustar y vos no los dejas,
te quieren asustar porque te ven muy mal,
porque te ven muy mal, porque te ven muy mal...

            
            
Suggest correction
Creating personal tab
Creating personal tab
You can edit any tab online and save it as your Personal.

You can edit, replace or remove any tab part or add personal notes – all changes will be seen only by you.

Personal tabs can be accessed anytime from any device, even offline.
Learn more »
Give kudos to tab author, rate the tab!
1 2 3 4 5
comments
print report bad tab
guest
Wanna post a correction for this tab? Suggest correction