Oops, an error
Loading. Please wait.

Todavía Estas Ahí bass

version 2
version 2

Whole song

32 views 3 this week
no commentswrite comment
1 2 3 4 5
3 more votes to show rating
add to favorites
×
Save as Personal and add changes to this tab that will be seen only by you. Learn more ›
×
You can save this tab as Personal to edit and correct it or add notes. All changes will be seen only by you. Learn more »
launch autoscroll
font size
0
reset
guitar tuner
edit
Autoscroll
slow
fast
+/-
esc
set tempo
stop
el primer desliz (del 3er a 10mo traste)lo hace a los 12seg aprox.


G|------------------------------------------
D|-------5-7-8-7-5(x8)---3/5(x10)-----------
A|-3/10-------------------------------------
E|------------------------------------------

minuto 1:04

G|------------------------------------------
D|-5-------55-------------------------------
A|---7-5-7----7-5-7-------------------------
E|------------------------------------------

apartir del solo de armonica empieza repitiendo asi

G|------------------------------------------
D|-5-------5-------5-------5-------5-------5
A|---7-5-7---7-5-7---7-5-7---7-5-7---7-5-7--
E|------------------------------------------

en el minuto 2:24 el sonido de bajo se esconde
un poco por el solo de guitarra pero a mi
me suena que hace algo asi

G|-5------------------------
D|---7-5-7(x4)--5-----------
A|----------------7-5-7(x4)-
E|--------------------------
esto x2 y sigue con

G|-------------------
D|-5-------55--------
A|---7-5-7----7-5-7--
E|-------------------

a la 8va vez que dice "xq me ven muy mal" empieza asi,
en la deslizada de 5 a 12 se puede
cambiar el 12 por el 7 de la cuerda
de abajo y el 10 por la quinta de abajo pero yo prefiero asi

G|-----------------------------------------------------------------
D|-5-7-8-7-5-------5-7-8-5/12-10-8-7-5-------5-------5-------------
A|-----------8-7-5---------------------8-7-5---8-7-5---8-7-5-------
E|-----------------------------------------------------------8-7-5-

G|--------------------------------------
D|---5-7-8-7-5-7-8-7-5-7-8-5/12-10-8-7-5
A|-5------------------------------------
E|--------------------------------------

G|--------------------------------------
D|-5-------5-5--------------------------
A|---8-7-5-----8-7-5(x5)----------------
E|--------------------------------------

G|--------------------------------------
D|---5-7-8-7-5-7-8-7-5-7-8-5/12-10-8-7-5
A|-5------------------------------------
E|--------------------------------------

G|-------------------
D|-5-------55--------
A|---7-5-7----7-5-7--
E|-------------------

Y asi termina

            
            
Suggest correction
Creating personal tab
Creating personal tab
You can edit any tab online and save it as your Personal.

You can edit, replace or remove any tab part or add personal notes – all changes will be seen only by you.

Personal tabs can be accessed anytime from any device, even offline.
Learn more »
Give kudos to tab author, rate the tab!
1 2 3 4 5
comments
print report bad tab
guest
Wanna post a correction for this tab? Suggest correction