Oops, an error
Loading. Please wait.

No Dejaré De Quererte tab

14 views 1 this week
no commentswrite comment
1 2 3 4 5
3 more votes to show rating
add to favorites
×
Save as Personal and add changes to this tab that will be seen only by you. Learn more ›
×
You can save this tab as Personal to edit and correct it or add notes. All changes will be seen only by you. Learn more »
launch autoscroll
font size
0
reset
how to read this tab
guitar tuner
edit
Autoscroll
slow
fast
+/-
esc
set tempo
stop
INTRO
1|-7------------7-8-10-8-8-7--------7-8-8--8-10-12-12-10-10-8-7--7-10-12-12-12--
2|---------8-10--------------10-10----------------------------------------------
3|-----7-9----------------------------------------------------------------------
4|---9--------------------------------------------------------------------------
5|------------------------------------------------------------------------------

1|-15-14-12-10h12-8-10/7--7-7--------------------10/7-7----------
2|----------------------------10-10-8-8---7-8-10--------10h12-10-
3|--------------------------------------9------------------------
4|---------------------------------------------------------------

 G                Am
Se que vas a marcharte
                C
que no puedes amarme
                   Cm
aunque mucho lo intentes
        G
debo dejarte ir


 G            Am
Di todo mi cariño
               C
para que tu camino
                     Cm
se quedara junto al mio
            G       C  G
tu no eres para mi


             C        G
Pero no dejare de quererte
         Bm      Em         D
aunque llore de tanto extrañarte
        Am      C          D
porque tu me dejaste en el alma
     G         C       D       G
un amor que sera inborrable


             C        G
Pero no dejare de quererte
        Bm      Em       D
aunque tu a mi lado no vuelvas
       Am       C        D
desde hoy colgare en mi pecho
       G         C          D
tu recuerdo cubriendo tu ausencia

INTERMEDIO
1|-7------------7-8-10-8-8-7--------7-8-8--8-10-12-12-10-10-8-7--7-10-12-12-12--
2|---------8-10--------------10-10----------------------------------------------
3|-----7-9----------------------------------------------------------------------
4|---9--------------------------------------------------------------------------
5|------------------------------------------------------------------------------

1|-15-14-12-10h12-8-10/7--7-7--------------------10/7-7----------
2|----------------------------10-10-8-8---7-8-10--------10h12-10-
3|--------------------------------------9------------------------
4|---------------------------------------------------------------

Yo daria lo que fuera
para que te quedaras
pero de que me sirve
si no te hago feliz

Di todo mi cariño
para que tu camino
se quede junto al mio
tu no eres para mi

Pero no dejare de quererte...

FINAL
1|-7------------7-8-10-8-8-7--------7-8-8--8-10-12-12-10-10-8-7--7-10-12-12-12--
2|---------8-10--------------10-10----------------------------------------------
3|-----7-9----------------------------------------------------------------------
4|---9--------------------------------------------------------------------------
5|------------------------------------------------------------------------------

1|-15-14-12-10h12-8-10/7--7-7--------------------10/7-7----------
2|----------------------------10-10-8-8---7-8-10--------10h12-10-
3|--------------------------------------9------------------------
4|---------------------------------------------------------------

            
            
Suggest correction
Creating personal tab
Creating personal tab
You can edit any tab online and save it as your Personal.

You can edit, replace or remove any tab part or add personal notes – all changes will be seen only by you.

Personal tabs can be accessed anytime from any device, even offline.
Learn more »
Give kudos to tab author, rate the tab!
1 2 3 4 5
comments
print report bad tab
guest
Wanna post a correction for this tab? Suggest correction