Oops, an error
Loading. Please wait.

La Última Botella Del Capitán tab

61 views 1 this week
no commentswrite comment
1 2 3 4 5
3 more votes to show rating
add to favorites
×
Save as Personal and add changes to this tab that will be seen only by you. Learn more ›
×
You can save this tab as Personal to edit and correct it or add notes. All changes will be seen only by you. Learn more »
launch autoscroll
font size
0
reset
how to read this tab
guitar tuner
edit
Autoscroll
slow
fast
+/-
esc
set tempo
stop
Esta canción esta llena de instrucciones así
que siganlas y talvez les salga bien...

Intro

Me parece que va de esta forma pero no
estoy muy seguro, si les sale de otra forma
me dicen...

e-------
B-------
G-------
D-7-8---
A-5-----
E---6---

Verso.

Intro
Por buscar el cielo, me largué de aquí,
Intro
Construí una nave y me fui lejos de ti,
Intro:
Descubrí planetas, astros de color,
D#5          F5          D5        D#5
Tantas cosas bellas pero solo para mí.

Pre-Coro:

A#5-A5/A#5\A5/A#5-A#5-F5   (x2)

Coro:

D#5    F#5            D5   D#5
Cuanto me ha dolido el corazón,
D#5    D5     C5  A#5 A5/A#5
Cuanto me has do--li--do hoy...

e----------------------------------------
B----------------------------------------
G----------------------------------------
D----------------------------------------
A----------------------------------------
E-5-6-5-6-5-6-5-6-5-6-5-5/8-8-8-8---(x4)-

Verso:

A#5          F5    A#5         F5
Por buscar el oro, me lancé al mar,
A#5           F5         A#5        F5
Construí un velero y me fui a navegar,
A#5        F5    A#5              F5
Descubrí sirenas, seres que al flotar,
D#5          F5           D5       D#5
Cantan cosas bellas pero solo para mi.

Pre-Coro:

A#5-A5/A#5\A5/A#5-A#5-F5  (x2)

Gtr 1.

e----------------------------------------
B----------------------------------------
G----------------------------------------
D----------------------------------------
A----------------------------------------
E-5-6-5-6-5-6-5-6-5-6-5-5/8-8-8-8---(x2)-

Gtr 2.

e----------------------------------------
B----------------------------------------
G----------------------------------------
D-7-8-7-8-7-8-7-8-7-8-7-8/10-10-10-10----
A----------------------------------------
E-----------------------------------(x2)-

Coro:

D#5      F5           D5   D#5
Cuanto me ha dolido el corazón,
D#5    D5     C5  A#5 A5/A#5
Cuanto me has do--li--do hoy,
D#5      F5           D5     D#5
Cuanto me ha  dolido el pecho hoy,
D#5    D5     C5  A#5 A5/A#5
Cuanto me has do--li--do hoy.

Gtr 1.

e----------------------------------------
B----------------------------------------
G----------------------------------------
D----------------------------------------
A----------------------------------------
E-5-6-5-6-5-6-5-6-5-6-5-5/8-8-8-8---(x2)-

Gtr 2.

e----------------------------------------
B----------------------------------------
G----------------------------------------
D-7-8-7-8-7-8-7-8-7-8-7-8/10-10-10-10----
A----------------------------------------
E-----------------------------------(x2)-


Pre-Solo?

A5 A#5/C5 (x4)

Después te quedás tocando A5 junto con unas
cuantas ?x? hasta que comienza el ?solo?...

Solo?

e----------------------------------------------------
B----------------------------------------------------
G----------------------------------------------------
D---------------------------8-7-5--------------------
A---------------5------5-6---------8--6-5------------
E-5--5-6-5--6-8---5--8---------------------8-8/10\6--

Intro:

e---------
B---------
G---------
D-8-7-----
A-6-------
E---5-----

Intro
Bebí una botella, la arrojé al mar,
Intro
Y si quepo en ella quizás pueda regresar,
Intro
Ahora todos dicen, pobre el capitán,
D#5                 F5                D5            D#5
Pues llegó hasta el fin del mundo sin nadie a quien amar.

Pre-Coro:

A#5-A5/A#5\A5/A#5-A#5-F5  (x2)

Coro:

D#5      F5           D5   D#5
Cuanto me ha dolido el corazón,
D#5    D5     C5  A#5 A5/A#5
Cuanto me has do--li--do hoy,

A#5-A5/A#5\A5/A#5-A#5-F5  (x1)


D#5      F5           D5   D#5
Cuanto me ha  dolido el pecho hoy,
D#5    D5     C5  A#5 A5/A#5
Cuanto me has do--li--do hoy.

Gtr 1.

e----------------------------------------
B----------------------------------------
G----------------------------------------
D----------------------------------------
A----------------------------------------
E-5-6-5-6-5-6-5-6-5-6-5-5/8-8-8-8---(x2)-

Outro:

e---------
B---------
G---------
D-7-8-----
A-5-------
E---6-----


Estos son los acordes que yo uso para esta rola
y son los que suenan bien, creo...

 D#5  F5  D5 A#5  A5 F5  C5
e-x---x---x---x---x---x---x----------------------
B-x---x---x---x---x---x---x----------------------
G-8---10--7---x---x---x---x----------------------
D-8---10--7---8---7---3---10---------------------
A-6---8---5---8---7---3---10---------------------
E-x---x---x---6---5---1---8----------------------

Hay partes, como el pre-coro, en las que solo te
doy los acordes, en esas te recomiendo que oigás
el disco y le saqués el numero de veces que se
toca cada uno...

En las partes de ?do--li--do hoy? podés tocar
los acordes que te dí o te podés quedar tocando
solo D5 hasta que llega la parte de la sexta cuerda.

En el segundo verso tenés que tocar en medio de cada
acorde unas ?x? o notas mudas para que te salga el
?efecto? que se oye de la guitarra

Bueno pues, esa fue toda la rola, no sé si ésta
tiene errores, se me hace que no debe tener muchos
pero igual que siempre si le encuentran algo que
no esté bien o si tienen dudas o solo me quieren
sacar la m@dre me escriben...

            
            
Suggest correction
Creating personal tab
Creating personal tab
You can edit any tab online and save it as your Personal.

You can edit, replace or remove any tab part or add personal notes – all changes will be seen only by you.

Personal tabs can be accessed anytime from any device, even offline.
Learn more »
Give kudos to tab author, rate the tab!
1 2 3 4 5
comments
print report bad tab
guest
Wanna post a correction for this tab? Suggest correction