Oops, an error
Loading. Please wait.

La Última Botella Del Capitán bass

17 views 1 this week
no commentswrite comment
1 2 3 4 5
3 more votes to show rating
add to favorites
×
Save as Personal and add changes to this tab that will be seen only by you. Learn more ›
×
You can save this tab as Personal to edit and correct it or add notes. All changes will be seen only by you. Learn more »
launch autoscroll
font size
0
reset
guitar tuner
edit
Autoscroll
slow
fast
+/-
esc
set tempo
stop
bueno acaa les dejo esta transcripción....buena rola
mas o menos asi va...
escuchen la rola ;)...
SULUDO PARA ANITA MAYEN ORREGO... I LOVE U....

Y OTRO SALUDASO PARA "ETNIA 8 2"...


el bajo se empieza a tocar desde acá....
1mer.
"tantas cosas bellas pero solo para mi"
G---------------------------------------
D---------------------------------------
A-6-6-6-6-6--8-8-8-8-8--5-5-5-5-5--6-6--
E---------------------------------------

2do.
G------------------------
D------------------------
A------------------------
E-6-6-5-6-5-6-6-6-8-8-8--      (x2)

3cer.(1)
Coro:
cuanto me ha dolido el corazón.....
G-------------------------------------------------------------------
D-------------------------------------------------------------------
A-6-6-6-6-6--8-8-8-8-8--5-5-5-5-5--6-6-6-6-6--6-6-6-6-6--8-8-8-8-8--
E-------------------------------------------------------------------

2do.
G------------------------
D------------------------
A------------------------
E-6-6-5-6-5-6-6-6-8-8-8--      (x4)

4to.
por buscar al oro me lance al mar......
G---------------------------------------
D---------------------------------------
A----------6-6-6-6-6---------6-6-6-6-6--
E-6-6-6-6-6---------6-6-6-6-6-----------   (x2)

descubri sirenas, seres que flotan...
G-----------------------------------------
D-----------------------------------------
A----------6-6-6-6-6----------8-8-10-8-6--
E-6-6-6-6-6---------6-6-6-6-6-------------

1mer.
"tantas cosas bellas pero solo para mi...."
G---------------------------------------
D---------------------------------------
A-6-6-6-6-6--8-8-8-8-8--5-5-5-5-5--6-6--
E---------------------------------------

2do.
G------------------------
D------------------------
A------------------------
E-6-6-5-6-5-6-6-6-8-8-8--      (x4)

3cer.  (1)
Coro:
cuanto me ha dolido el corazón.....
G-------------------------------------------------------------------
D-------------------------------------------------------------------
A-6-6-6-6-6--8-8-8-8-8--5-5-5-5-5--6-6-6-6-6--6-6-6-6-6--8-8-8-8-8--
E-------------------------------------------------------------------

2do.
G------------------------
D------------------------
A------------------------
E-6-6-5-6-5-6-6-6-8-8-8--  (1)

3cer.  (1)
cuanto me ha dolido el pecho hoy...
G-------------------------------------------------------------------
D-------------------------------------------------------------------
A-6-6-6-6-6--8-8-8-8-8--5-5-5-5-5--6-6-6-6-6--6-6-6-6-6--8-8-8-8-8--
E-------------------------------------------------------------------

2do.
G------------------------
D------------------------
A------------------------
E-6-6-5-6-5-6-6-6-8-8-8--  (x2)

 luego viene una solo de la guitarra
        D# F G(x4) y al empezar la 2da vez,
      en el bajo se toca esto

G----------------------------------------------------
D-8-7-8-7-8-7-8-7-5----------------------------------
A---------------------8-6--6-6-6-6-6-8-8-8-10-10-10--
E----------------------------------------------------
                                   D#
G-----------------------------------------------------------
D-----------------------------------------------------------
A-6-6-6-6-6-8-8-8-10-10-10---------6-6---6-6-6--6-6--6-6-6--
E-----------------------------------------------------------

SOLO: me parece que el "solo" se hace
únicamente con el bajo y va  asi

G-----------------6-7-8-15-14-12-10---------------------
D---------6-7-8---------------------13-12-10--10-10/12--
A---5-6---------5---------------------------------------
E-6-----6-----------------------------------------------

G---------------
D---------------
A---5-6----5-6--
E-6------6------    (x2)

la última botella la arroje al mar.....
G-----------------------------
D-----------------------------
A---5-6----5-6----5-6----5-6--
E-6------6------6------6------

"ahora todos dicen pobre capitan.....
G-------------------------------------------
D-------------------------------------------
A----------6-6-6-6-6----------8-8-10-8-6-6--
E-6-6-6-6-6---------6-6-6-6-6---------------

pues llego hasta el fin del mundo....
G---------------------------------------
D---------------------------------------
A-6-6-6-6-6--8-8-8-8-8--5-5-5-5-5--6-6--
E---------------------------------------

2do.
G------------------------
D------------------------
A------------------------
E-6-6-5-6-5-6-6-6-8-8-8--     (x2)


3cer.
Coro:

SI HAY ALGUN ERROR,
ALGUNA DUDA, UNA
SACADA DE MADRE ME LO
HACEN SABER PORFA....
mi correo dajecame_o9@

            
            
Suggest correction
Creating personal tab
Creating personal tab
You can edit any tab online and save it as your Personal.

You can edit, replace or remove any tab part or add personal notes – all changes will be seen only by you.

Personal tabs can be accessed anytime from any device, even offline.
Learn more »
Give kudos to tab author, rate the tab!
1 2 3 4 5
comments
print report bad tab
guest
Wanna post a correction for this tab? Suggest correction