Oops, an error
Loading. Please wait.

Traición tab

35 views 1 this week
no commentswrite comment
1 2 3 4 5
3 more votes to show rating
add to favorites
×
Save as Personal and add changes to this tab that will be seen only by you. Learn more ›
×
You can save this tab as Personal to edit and correct it or add notes. All changes will be seen only by you. Learn more »
launch autoscroll
font size
0
reset
how to read this tab
guitar tuner
edit
Autoscroll
slow
fast
+/-
esc
set tempo
stop
INTRO
Este es el intro que esta en Cenizas bajo tus pies.

    D                 G               (2 veces)  
E |-2--2----2----2----3--3----3---3--|
B |-3---3-----3---3---3---3----3---3-|
G |-2----2-----2------0----0----0----|
D |-0-----0-----------0-----0--------|
A |----------------------------------|
E |----------------------------------|

Este es el intro de la versión que viene en Remedios, 
y de la que se va a tratar la partitura. Son parecidas, 
solo que en la de Cenizas bajo tus pies existe un arpegiado, 
y en la de Remedios solo es raspado, pero hay unos solos muy 
buenos, si alguién los tiene se lo agradecería que me los 
mandara o hicieramos algún intercambio con otra rola sobre 
todo rock guatemalteco.


Verso
    D  Dsus4 D     G   Gsus4       D   Dsus4            G
E |-2-2-3-2-2-2-2--3-3-5-5-5-5-5---2-2-3-2-2-2-2--3-3-3-3-3-3-3-|
B |-3-3-3-3-3-3-3--3-3-3-3-3-3-3---3-3-3-3-3-3-3--3-3-3-3-3-3-3-|
G |-2-2-2-2-2-2-2--0-0-0-0-0-0-0---2-2-2-2-2-2-2--0-0-0-0-0-0-0-|
D |-0-0-0-0-0-0-0--0-0-0-0-0-0-0---0-0-0-0-0-0-0--0-0-0-0-0-0-0-|
A |-------------------------------------------------------------|
E |-------------------------------------------------------------|


Me voy a la orilla de un puente 
Y lo pienso varias veces, 
No tengo a donde ir, 
Mi sitio ya no está allí... 
Solo veo espaldas vagas 
Más una que se les une 
Para ser parte del montón, 
Traición... traición... 
Prefiero entregarme 
A las piedras, al cielo, al viento, 
Son más que la gente, 
Es lo inerte lo que siente, 
Lo que yo miro verde... 


Coro
    D5             G5
E |------------------------------|
B |------------------------------|
G |------------------------------|
D |-7-7-7-7-7-7-7----------------|
A |-5-5-5-5-5-5-5--5-5-5-5-5-5-5-|
E |----------------3-3-3-3-3-3-3-|


miro verde... miro verde...
Traición... traición... traición...

Verso
    D  Dsus4 D     G   Gsus4             D              G
E |-2-2-3-2-2-2-2--3-3-5-5-5-5-5---2-2-2-2-2-2-2--3-3-3-3-3-3-3-|
B |-3-3-3-3-3-3-3--3-3-3-3-3-3-3---3-3-3-3-3-3-3--3-3-3-3-3-3-3-|
G |-2-2-2-2-2-2-2--0-0-0-0-0-0-0---2-2-2-2-2-2-2--0-0-0-0-0-0-0-|
D |-0-0-0-0-0-0-0--0-0-0-0-0-0-0---0-0-0-0-0-0-0--0-0-0-0-0-0-0-|
A |-------------------------------------------------------------|
E |-------------------------------------------------------------|
Qué pasó con el calor que antes me estrechaba? 
Que pasó con ese sol que antes me iluminaba? 
Ya no negaré que odiaba 
La mano que me alimentaba... no... 

Coro
    D5             G5
E |------------------------------|
B |------------------------------|
G |------------------------------|
D |-7-7-7-7-7-7-7----------------|
A |-5-5-5-5-5-5-5--5-5-5-5-5-5-5-|
E |----------------3-3-3-3-3-3-3-|

Traición... traición... traición... 
Qué pasó con el calor que antes me estrechaba? 
Que pasó con ese sol que antes me iluminaba? 
Ya no negaré que te odiaba. 

Cualquier duda o comentario comunicarse con vicuev2000@ Que Viva Viernes Verde.
Ayer, hoy, mañana y siempre Viernes Verde.

            
            
Suggest correction
Creating personal tab
Creating personal tab
You can edit any tab online and save it as your Personal.

You can edit, replace or remove any tab part or add personal notes – all changes will be seen only by you.

Personal tabs can be accessed anytime from any device, even offline.
Learn more »
Give kudos to tab author, rate the tab!
1 2 3 4 5
comments
print report bad tab
guest
Wanna post a correction for this tab? Suggest correction