Oops, an error
Loading. Please wait.

Para Dormir Contigo Otra Vez chords

version 2
version 2

Whole song

248 views 3 this week
no commentswrite comment
1 2 3 4 5
2 more votes to show rating
add to favorites
×
Save as Personal and add changes to this tab that will be seen only by you. Learn more ›
×
You can save this tab as Personal to edit and correct it or add notes. All changes will be seen only by you. Learn more »
launch autoscroll
font size
0
reset
transpose
0
reset
display chords
guitar tuner
edit
Autoscroll
slow
fast
+/-
esc
set tempo
stop
Strumming
There is no strumming pattern for this song yet. and get +5 IQ
        E
Quiero regalarte
         B
estas canciones regalarte
           A                 Am
para que sepas lo mucho que me gustas
          E
y que te quiero todavía
          E
Quiero regalarte
           B
todas mis canciones regalarte
           A                 Am
para que sepas lo mucho que me gustas
           C#m
y que te amo todavía

                   se repite 4 veces
1--------------------------|-------------------|
2--------------------------|-------------------|
3--------------6-6--9-9----|-----------8-8--7--|
4--------7-8-9----------9--|---7-8-9-9-------7-|
5--------------------------|-------------------|
6--------------------------|-------------------|

        E
Quiero regalarte
         B
estas canciones regalarte
           A                 Am
para que sepas lo mucho que me gustas
          E
y que te quiero todavía
          E
Quiero regalarte
           B
todas mis canciones regalarte
           A                 Am
para que sepas lo mucho que me gustas
           C#m
y que te amo todavía

         B
Pero me dices
              A  Am
que solo son palabras
           E
que yo no te miento
        B
pero me dices
              A  Am
que solo son palabras
                 C#m
que se las lleva el viento
          B
y si las palabras
              A   Am
se las lleva el viento
          E
yo no te miento
          B           A    Am
y si las palabras se las lleva el viento...

     E                   B
ENTONCES VOY A CANTARLE AL VIENTO
          A
TODO LO QUE SIENTO
             C#m       B
PAR DORMIR CONTIGO OTRA VEZ (x2) 2|----14-16-16s-16s-|--2-2-2-1|

1--------------------------|-------------------|
2--------------------------|-------------------|
3--------------6-6--9-9----|-----------8-8--7--|
4--------7-8-9----------9--|---7-8-9-9-------7-|
5--------------------------|-------------------|
6--------------------------|-------------------|

1--------------------------|--------------------------|
2--------------------------|--------------------------|
3-------------6-6--9-9-----|--------------------------|
4-------7-8-9----------9---|--7-8-9-9-7---------------|
5--------------------------|------------11-12-11--9-7-|
6--------------------------|--------------------------|

          B
Y tú me dices
             A lAm
que solo son palabras
          E
que yo te miento
         B
y tú me dices me dices me dices
            A    Am
que solo son palabras
               C#m
que se las lleva el viento
         B
y si las palabras
            A    Am
se las lleva el viento
          E
yo no te miento
          B                A      Am
y si las palabras se las lleva el viento...

  E                   B
ENTONCES VOY A CANTARLE AL VIENTO
          A
TODO LO QUE SIENTO
             C#m       B
PARA DORMIR CONTIGO OTRA VEZ (x2) 2|----14-16-16s-16s-|--2-2-2-1|


SALUDOS * javoo * :D

            
            
Suggest correction
Creating personal tab
Creating personal tab
You can edit any tab online and save it as your Personal.

You can edit, replace or remove any tab part or add personal notes – all changes will be seen only by you.

Personal tabs can be accessed anytime from any device, even offline.
Learn more »
Give kudos to tab author, rate the tab!
1 2 3 4 5
comments
print report bad tab
guest
Wanna post a correction for this tab? Suggest correction