Oops, an error
Loading. Please wait.

No Sé Niño Hermoso tab

70 views 1 this week
no commentswrite comment
1 2 3 4 5
3 more votes to show rating
add to favorites
×
Save as Personal and add changes to this tab that will be seen only by you. Learn more ›
×
You can save this tab as Personal to edit and correct it or add notes. All changes will be seen only by you. Learn more »
launch autoscroll
font size
0
reset
how to read this tab
guitar tuner
edit
Autoscroll
slow
fast
+/-
esc
set tempo
stop
                NO SE NIÑO HERMOSO (PIBES TRUJILLO)

Esta es una hermosa cancion ecuatoriana que exprea esl sentimiento
de la infancia de JESUS.
el villancico esta en la menor, pero si quieren que suene identico
al disco original bajen un medio tono la afinacion (mib "o" re#)
espero les guste.

  E      Am      E       Am  E      Am      E       Am
E----0-------0-3-4-0------------0-------0-3-4-0-------0-5-
B---0-3-1---1--------3-1-------0-3-1---1--------3-1--1--5-
G--1-----2---------------2----1-----2---------------2---5-
D-2--------------------------2----------------------------
A---------------------------------------------------------
E---------------------------------------------------------

C
NO SE NIÑO HERMOSO QUE HE VISTO YO EN TI,
                       E         Am
QUE NO SE QUE TENGO DESDE QUE TE VI. (BIS)

  E      Am      E       Am  E      Am      E       Am
E----0-------0-3-4-0------------0-------0-3-4-0-------0-5-
B---0-3-1---1--------3-1-------0-3-1---1--------3-1--1--5-
G--1-----2---------------2----1-----2---------------2---5-
D-2--------------------------2----------------------------
A---------------------------------------------------------
E---------------------------------------------------------

FA 
TUS TIERNAS MEJILLAS DE MIEL Y JASMIN,

TUS LABIOS HERMOSOS CUAL ROSA DE ABRIL.

C
TU AFECTO HARA BUENO Y EL DULCE REIR,
                           E        Am
TAN PROFUNDAMENTE SE HAN GRAVADO EN MI.


   FA 
E--8--10-10-8---------8--10-10-8-----
B--10-10-10-10-10-10--10-10-10-10-10-
G--10----------10-10--10----------10-
D------------------------------------
A------------------------------------
E------------------------------------

  C                                          E     Am
E-3-8-8-5-3------3-8-8-5-3----3-8-8-5-3----5-3--------
B-5-8-8-5-5-5-5--5-8-8-5-5-5--5-8-8-5-5-5--5-5-5-3-1--
G-5---------5-5--5---------5--5---------5------5-4-2--
D-----------------------------------------------------
A-----------------------------------------------------
E-----------------------------------------------------

C
NO SE NIÑO HERMOSO QUE HE VISTO YO EN TI,
                       E         Am
QUE NO SE QUE TENGO DESDE QUE TE VI. (BIS)

 E      Am      E       Am  E      Am      E       Am
E----0-------0-3-4-0------------0-------0-3-4-0-------0-5-
B---0-3-1---1--------3-1-------0-3-1---1--------3-1--1--5-
G--1-----2---------------2----1-----2---------------2---5-
D-2--------------------------2----------------------------
A---------------------------------------------------------
E---------------------------------------------------------

FA
SI ACASO ALGUN DIA ME ATREVO A SALIR,

AL PRADO FRORIDO POR VER DIVERTIR.

C
DONDE QUIERA QUE MIRES TE MIRO YO A TÍ,

                     E          Am
ENTONCES DE NUEVO COMIENZO A DECIR. (BIS)

C
TU AFECTO HARA BUENO Y EL DULCE REIR,
                           E        Am
TAN PROFUNDAMENTE SE HAN GRAVADO EN MI.

fin.

CUALQUIER DUDA O COMENTARIO ESCRIBANME A WILLIAM-TORO@

J.E.R.M

            
            
Suggest correction
Creating personal tab
Creating personal tab
You can edit any tab online and save it as your Personal.

You can edit, replace or remove any tab part or add personal notes – all changes will be seen only by you.

Personal tabs can be accessed anytime from any device, even offline.
Learn more »
Give kudos to tab author, rate the tab!
1 2 3 4 5
comments
print report bad tab
guest
Wanna post a correction for this tab? Suggest correction