Oops, an error
Loading. Please wait.

De Nadie Más tab

10 views 1 this week
no commentswrite comment
1 2 3 4 5
3 more votes to show rating
add to favorites
×
Save as Personal and add changes to this tab that will be seen only by you. Learn more ›
×
You can save this tab as Personal to edit and correct it or add notes. All changes will be seen only by you. Learn more »
launch autoscroll
font size
0
reset
how to read this tab
guitar tuner
edit
Autoscroll
slow
fast
+/-
esc
set tempo
stop
DE NADIE MAS
Los Villanos
Nro 10 del album "Villanos Al Poder" (2004)

Acordes:
     EADGBe
F#   244322
C#   446664
Ebm  668876
B    224442

Acordes (afinada medio tono más abajo)
F#   320033
C#   x00232
Ebm  022000
B    032010


INTRO:
  N/C
e---------------------------------------------------------------------------
B---------------------------------------------------------------------------
G------3--------3----------------------------------------4-----4--------4---
D---------4--------4-----6--4-----6--4-------4-------4------4--------4------
A---4--------4--------4--------4--------4h6-----6h4---------------6---------
E---------------------------------------------------------------------------
Parte 2:
    F#                   C#             Ebm               B
e-------------------------------------------------------------------------
B-------------------------------------------------------------------------
G------3--------3--------------------------------------------4--3---------
D---------4--------4-----6--4-----6--4-------4-------4-------------6--4---
A---4--------4--------4--------4--------4h6-----6h4-----4h6---------------
E-------------------------------------------------------------------------


1er VERSO (con arpegios de fondo):
F#    C#           B
No viniste a despedirte
B                F#
no dijiste nada más
F#     C#          B
Sin saber adonde fuiste
B                        F#
ni qué hiciste ni que harás

F#     C#          B
Si pudiera ser distinto
B                        F#
si pudiera cambiar el final
F#     C#          B             C#
Me pregunto y me vuelvo a preguntar
                              e-----------------------
                              B-----------------------
                              G--4--3-----4--3--------
                              D--------4--------6--4--
                              A-----------------------
                              E-----------------------
CORO:
F#         C#
Qué sería de mi vida
Ebm          B
si tu vida fuese mía   x2

(De fondo al CORO):
e------------------------------------------
B------------------------------------------
G--6--3-----6--3-----6--3-----3s4--3-------
D--------4--------4--------4----------6-4--
A------------------------------------------
E------------------------------------------


*Repetir parte 2 de INTRO


2do VERSO (igual al 1er VERSO):

Ya no se si queda algo
más allá de un frío adiós
Puedo fingir estar ocupado
Y olvidar en verdad como estoy

Ya no vivo del pasado
pero hay sombras que intentan volver
Y no hay nada que me pueda contener


*Repetir CORO y después (acompaña parte 2 de la INTRO):

F#          C#        Ebm
Mía y solo mía, solo mía
B                    F#
solo mía y de nadie más

SOLO:
   F#       C#       Ebm      B           F#         C#        Ebm      B
e-----------------------------------------------------------------------------------------
B-----------------------------------------------------------------------------------------
G--6--3-----6--3-----6--3-----4--3--------------3--4-3---------------3--4-3---4-3---------
D--------4--------4--------4--------6-4---4--6----------6s4----4--6---------4------6--4---
A-----------------------------------------------------------------------------------------
E-----------------------------------------------------------------------------------------


F#      C#             B
  Solo mía y de nadie más
        B              F#
  solo mía y de nadie más
                    B--2---------
                    G-----3------
                    D--------4---
F#      C#             B
  Solo mía y de nadie más
                    B--2---------
                    G-----3------
                    D--------4---
  F#          C#   B
  Mía y solo mía, mía y solo mía
B--2-----2-----2---2-----2-----2---
G----3-----3-----3---3-----3-----3-
D------4-----4---------4-----4-----
  F#          C#        B                 C#
  Mía y solo mía, solo mía... y de nadie más
B--2-----2-----2---2-----2-----2---
G----3-----3-----3---3-----3-----3-
D------4-----4---------4-----4-----


*Repetir CORO  x3 (acompaña una parte del solo:
   F#       C#       Ebm      B
e------------------------------------------
B------------------------------------------
G--6--3-----6--3-----6--3-----3s4--3-------
D--------4--------4--------4----------6-4--
A------------------------------------------
E------------------------------------------
(En la última termina en F# y con la frase "fuese mía y de nadie más")

            
            
Suggest correction
Creating personal tab
Creating personal tab
You can edit any tab online and save it as your Personal.

You can edit, replace or remove any tab part or add personal notes – all changes will be seen only by you.

Personal tabs can be accessed anytime from any device, even offline.
Learn more »
Give kudos to tab author, rate the tab!
1 2 3 4 5
comments
print report bad tab
guest
Wanna post a correction for this tab? Suggest correction