Oops, an error
Loading. Please wait.

Lima-Limón bass

12 views 1 this week
no commentswrite comment
1 2 3 4 5
3 more votes to show rating
add to favorites
×
Save as Personal and add changes to this tab that will be seen only by you. Learn more ›
×
You can save this tab as Personal to edit and correct it or add notes. All changes will be seen only by you. Learn more »
launch autoscroll
font size
0
reset
guitar tuner
edit
Autoscroll
slow
fast
+/-
esc
set tempo
stop
Intro 
Primero guitarra, despues entra el bajo con esto:

1---------------------------------------------------------------|-
2---------------------------------------------------------------|-
3----------------------------3-3-3-3-3-3-3-3-3-3-3-3-3-3-3-3----|- Riff A
4--3-3-3-3-3-3-3-3-3-3-3-3-3------------------------------------|-

1---------------------------------------------------------------|-
2---------------------------------------------------------------|-
3----------------------------3-3-3-3-3-3-3-3-5-5-5-5-5-5-5-5----|-
4--3-3-3-3-3-3-3-3-3-3-3-3-3------------------------------------|-


'Sale a la calle solo para comprar...'
1---------------------------------------------------------------|-
2---------------------------------------------------------------|-
3--------------------------------3-3-5--3--5-3--3-3-5--33-5-3---|- Riff B
4--3-3-5--3--5-3--3-3-5--33--5-3--------------------------------|-


'pide fiado, no puede pagar...'
1---------------------------------------------------------------|-
2---------------------------------------------------------------|-
3--------------------------------3-3-5--3--5-5-5-5-5-5-5-5------|-
4--3-3-5--3--5-3--3-3-5--33--5-3--------------------------------|-


'Completamente limado...'

Vuelve al Riff B y despues el Riff A


'Ya tiene reservado un lindo cajón...'

Riff B 


'Completamente limado...'

Riff B


'Lima limón, lima lima limón...'

Riff B


'Todo el mundo se borra...'
1--------------------------------------------------------------|-
2-------------------------------------2-3----------------------|-
3--3--3-------------------------2-3-5------3--3----------------|- Riff C
4--------3--3--3-3-3-3-3-3--3-5------------------3--3----------|-


'En el viaje de vuelta...'
1--------------------------------------------------------------|-
2--------------------------------------------------------------|-
3---------------------------5----------------------------------|- 
4--3-3-3-3-3-3-3-3-3-3-3-3-------------------------------------|-

Solo de guitarra
1--------------------------------------------------------------|-
2--------------------------------2-5-2-3----2-5-2-3------------|-
3--------2-5-2-3-----2-5-2-3---3----------3--------------------|- Riff D
4--9/3-3-----------3-------------------------------------------|-

1--------------------------------------------------------------|-
2--------------------------------------------------------------|-
3--------2-5-2-3-----2-5-2-3---3-3-3-3-3-3-3-3-5-5-5-5-5-5-5-5-|-
4--9/3-3-----------3-------------------------------------------|-

'Vendió a su familia por un papel...'

Riff B

'Completamente limado...'

Riff B

'Lima limón, lima lima limón...'

Riff B x2

Final

1--------------------------------------------------------------|-
2--------------------------------------------------------------|-
3--5-5---3-3---2-2---------------------------------------------|- 
4-------------------5-5---3------------------------------------|-
Suggest correction
Creating personal tab
Creating personal tab
You can edit any tab online and save it as your Personal.

You can edit, replace or remove any tab part or add personal notes – all changes will be seen only by you.

Personal tabs can be accessed anytime from any device, even offline.
Learn more »
Give kudos to tab author, rate the tab!
1 2 3 4 5
comments
print report bad tab
guest
Wanna post a correction for this tab? Suggest correction