Oops, an error
Loading. Please wait.

Lima-Limón tab

4 views 1 this week
no commentswrite comment
1 2 3 4 5
3 more votes to show rating
add to favorites
×
Save as Personal and add changes to this tab that will be seen only by you. Learn more ›
×
You can save this tab as Personal to edit and correct it or add notes. All changes will be seen only by you. Learn more »
launch autoscroll
font size
0
reset
how to read this tab
guitar tuner
edit
Autoscroll
slow
fast
+/-
esc
set tempo
stop
x = el acorde con base de rock
intro: riff - sol5x - riff - do5x - riff - sol5x - riff - re5x - riff

SOL5
Sale a la calle solo para comprar,
DO5
Nadie en el barrio se lo quiere cruzar,
SOL5
Pide fiado no puede pagar,
DO5                    RE5
Esta hecho un bardo... 
              riff2                DO5x
completamente limado, demasiado rockeado,
completamente limado, demasiado rockeado, 

intro

ya tiene reservado un lindo cajón,
esta enajenado y va de mal en peor,
su vida es un caos no entra razon,
se esta quedando...

completamente limado, demasiado rockeado,
completamente limado, demasiado rockeado, 

[lima limon lima lima limon (x4) sobre intro] x2

riff3        SOL5*               LA5               riff4
     todo el mundo se borra y el bando que perdió,
riff3        SOL5*                   LA5         solo
     y en el viaje de vuelta no hay nadie alrededor

perdió a su familia por un papel,
gasto la ley se se fundió otra vez,
tanto rock and roll puede no hacerte bien,
y terminar dejándote... 

completamente limado, demasiado rockeado,
completamente limado, demasiado rockeado, 

[lima limon lima lima limon (x4) sobre intro] x2

final:
RE5  DO5  SI5  LA5  SOL
lima lima lima li - mon

riff             riff2
e|------------  e|--------------
b|------------  b|-3-3-5-3-3-5-3
g|3-2-0-3--2-0  g|-4-4-4-4-4-4-4
d|------------  d|--------------
a|------------  a|--------------
e|------------  e|--------------

riff3       riff4
e|-------   e|-------------
b|-------   b|-------------
g|-------   g|7-7-7-7-7-6--
d|5-7-5--   d|7-7-7-7-7-6--
a|3-3-3--   a|-------------
e|-------   e|-------------

solo

e|6-5-3-6--5-3--3-3-3p1-3p1-3p1--6-5-3-6-5-3--3-3-3p1-3p1-3p1
b|6-5-3-6--5-3--3-3-3p1-3p1-3p1--6-5-3-6-5-3--3-3-3p1-3p1-3p1
g|-----------------------------------------------------------
d|-----------------------------------------------------------
a|-----------------------------------------------------------
e|-----------------------------------------------------------

e|6-5-3-6--5-3-33333333-3p1-------1--333-----6-5-3-5-6666
b|6-5-3-6--5-3-33333333-3p1-------1--333-5-3-------5-5555
g|--------------------------3-0-3------------------------
d|-------------------------------------------------------
a|-------------------------------------------------------
e|-------------------------------------------------------

   SOL  SOL5  SOL5*  DO5   RE5   LA5   SI5
e|-----|-----|-----|-----|-----|-----|-----
b|--3--|-----|-----|-----|-----|-----|-----
g|--4--|-----|--7--|-----|-----|-----|-----
d|--5--|-----|--5--|--5--|--7--|-----|--4--
a|-----|--5--|-----|--3--|--5--|--7--|--2--
e|-----|--3--|-----|-----|-----|--5--|-----

Aguante villanos.......y  NO FUNCIONA
                                punk rock

            
            
Suggest correction
Creating personal tab
Creating personal tab
You can edit any tab online and save it as your Personal.

You can edit, replace or remove any tab part or add personal notes – all changes will be seen only by you.

Personal tabs can be accessed anytime from any device, even offline.
Learn more »
Give kudos to tab author, rate the tab!
1 2 3 4 5
comments
print report bad tab
guest
Wanna post a correction for this tab? Suggest correction