Oops, an error
Loading. Please wait.

Sácate Todo tab

29 views 1 this week
no commentswrite comment
1 2 3 4 5
3 more votes to show rating
add to favorites
×
Save as Personal and add changes to this tab that will be seen only by you. Learn more ›
×
You can save this tab as Personal to edit and correct it or add notes. All changes will be seen only by you. Learn more »
launch autoscroll
font size
0
reset
how to read this tab
guitar tuner
edit
Autoscroll
slow
fast
+/-
esc
set tempo
stop
Intro
1----------------------------------------
2----------------------------------------
3--5-5-5-5--5----5-5-5-5--5---3-4-5------
4--5-7-5-7--5----5-7-5-7--5---3-4-5------  x3
5----------------------------------------
6----------------------------------------


1----------------------------------------
2----------------------------------------
3--5-5-5-5--5-----5-5-5-5-5-5-5-5--------
4--5-7-5-7--5-----5-7-5-7-5-7-5-7--------
5----------------------------------------
6----------------------------------------

Tambien lo pueden tocar asi:

1-------------------------------------------
2-------------------------------------------
3-------------------------------------------
4-------------------------------------------  x3
5-10-12-10-12-10--10-12-10-12-10----9--10-11
6--8--8--8--8--8---8--8--8--8--8----6--7--8-

1-----------------------------------------
2-----------------------------------------
3-----------------------------------------
4-----------------------------------------
5-10-12-10-12-10----10-12-10-12-10-12-10--
6--8--8--8--8--8-----8--8--8--8--8--8-8---


Sacate Todo 1,2,3 va!

SOL
Otra noche va a empezar
DO
No sabés donde mierda estás
SOL
Cualquier día te vas a estrellar
DO
Pero el show tiene que continuar


FA
Despertá a toda la ciudad
DO
No te cuelgues que ahora no da
RE           SOL                 DO
Sacate esa mierda que te hace mal

SOL
De acá no te vas!!!


DO             FA
Sacate todo, sacate todo
DO             FA
Sacate todo, sacate todo
DO             FA
Sacate todo, sacate todo
SOL           FA
Estoy re-loco  Sacate Todo!


Intro


Quiero verte desnudar
Ya no importa que pueda pasar
Si este show tiene que continuar
Que se enteren que estamos acá

Despertá a toda la ciudad
No te cuelgues que ahora no da
Sacate esa mierda que te hace mal
De acá, de acá, de acá no te vas

Sacate todo, sacate todo
Estoy re-loco Sacate Todo!

Fin

1----------------------------------------
2----------------------------------------
3--5-5-5-5--5-----5--5--5--5---5-5-5-----
4--5-7-5-7--5-----5--7--5--7---5-5-5-----
5------------------------------3-3-3-----
6----------------------------------------

o sino de la otra manera

1------------------------------------------------
2------------------------------------------------
3------------------------------------------------
4------------------------------------10--10--10--
5-10-12-10-12-10----10--12--10--12---10--10--10--
6--8--8--8--8--8-----8---8---8---8---8---8---8---

Sacate Todo Che!

            
            
Suggest correction
Creating personal tab
Creating personal tab
You can edit any tab online and save it as your Personal.

You can edit, replace or remove any tab part or add personal notes – all changes will be seen only by you.

Personal tabs can be accessed anytime from any device, even offline.
Learn more »
Give kudos to tab author, rate the tab!
1 2 3 4 5
comments
print report bad tab
guest
Wanna post a correction for this tab? Suggest correction