Oops, an error
Loading. Please wait.

Si Yo Soy Así tab

46 views 1 this week
no commentswrite comment
1 2 3 4 5
3 more votes to show rating
add to favorites
×
Save as Personal and add changes to this tab that will be seen only by you. Learn more ›
×
You can save this tab as Personal to edit and correct it or add notes. All changes will be seen only by you. Learn more »
launch autoscroll
font size
0
reset
how to read this tab
guitar tuner
edit
Autoscroll
slow
fast
+/-
esc
set tempo
stop
Dudas, consultas y correcciones a mi mail...
Saludos

30-12-04
NO OLVIDAR, SIEMPRE RESISTIR


Si Yo Soy Así
(Villanos)

Intro

e|------------------------------------------|
B|------------------------------------------|
G|------6---------13---------11-----6--6-6--|  x 2
D|----6---6----13----13---11----11--6--6-6--|
A|--4-------11----------9-----------4--4-4--|
E|------------------------------------------|

e|--------------------------------------------------|
B|----------------------------------------7-6-------|
G|--6-----6-----6-8-6-8(9)~---6-----6---------8-6~--|
D|----6-6---6-6-----------------6-6---6-6-----------|
A|--------------------------------------------------|
E|--------------------------------------------------|

e|--6-9-8-6---8-6-----6-------------------------------------|
B|----------9----9-7----9-7-6-9-7-6-----9-----9--7-6--------|
G|----------------------------------8(9)--8(9)-------8-6~---|
D|----------------------------------------------------------|
A|----------------------------------------------------------|
E|----------------------------------------------------------|

C#            G#            F#         C#
En esta canción, no hay mensajes para vos
              G#         F#           C/C#-C# C/C#-C#
uno y dos son tres, arruinado hoy me ves
C#          G#          F#        C#
Me podes buscar, pero nunca encontrar
               G#        F#         C#
mi cuerpo esta acá, mi cabeza mas allá

       G#                       C#
Porque yo nunca lo hice, nunca más lo vuelvo a hacer
       G#                       C#
porque todo se repite sin que yo lo quiera hacer
       G#                       C#
porque fácil se presenta cuando no lo quiero hacer
       G#                       C#
porque vivo como un muerto pero vuelvo a nacer

C#        G#             F#         C#
Si yo soy así, no es por culpa de la droga
C#            G#            F#         C/C#-C# C/C#-C#
si yo soy así, no es por culpa del alcohol
C#        G#             F#         C#
Si yo soy así, no es por culpa de la droga
C#            G#            F#         C#
si yo soy así, no es por culpa del alcohol

Solo

e|--------------------------------------------------|
B|----------------------------------------7-6-------|
G|--6-----6-----6-8-6-8(9)~---6-----6---------8-6~--|
D|----6-6---6-6-----------------6-6---6-6-----------|
A|--------------------------------------------------|
E|--------------------------------------------------|

e|--6-9-8-6--8-6-----6--------------------------------------|
B|----------9----9-7---9-7-6-9-7-6-----9------9------9------|
G|---------------------------------8(9)--8(9)---8(9)---8(9)-|
D|----------------------------------------------------------|
A|----------------------------------------------------------|
E|----------------------------------------------------------|

C#            G#            F#         C#
En esta canción, no hay mensajes para vos
              G#         F#           C/C#-C# C/C#-C#
uno y dos son tres, arruinado hoy me ves
C#          G#          F#        C#
Me podes buscar, pero nunca encontrar
               G#        F#         C#
mi cuerpo esta acá, mi cabeza mas allá

       G#                       C#
Porque yo nunca lo hice, nunca más lo vuelvo a hacer
       G#                       C#
porque todo se repite sin que yo lo quiera hacer
       G#                       C#
porque fácil se presenta cuando no lo quiero hacer
       G#                       C#
porque vivo como un muerto pero vuelvo a nacer

C#        G#             F#         C#
Si yo soy así, no es por culpa de la droga
C#            G#            F#         C/C#-C# C/C#-C#
si yo soy así, no es por culpa del alcohol
C#        G#             F#         C#
Si yo soy así, no es por culpa de la droga
C#            G#            F#         C#
si yo soy así, no es por culpa del alcohol

C#        G#             F#         C#
Si yo soy así, no es por culpa de la droga
C#            G#            F#         C/C#-C# C/C#-C#
si yo soy así, no es por culpa del alcohol
C#        G#             F#         C#
Si yo soy así, no es por culpa de la droga
C#            G#            F#         C#
si yo soy así, no es por culpa del alcohol

Sube un tono

D#        A#             G#         D#
Si yo soy así, no es por culpa de la droga
D#            A#            G#         D/D#-D# D/D#-D#
si yo soy así, no es por culpa del alcohol
D#        A#             G#         D#
Si yo soy así, no es por culpa de la droga
D#            A#            G#         D#
si yo soy así, no es por culpa del alcohol


Notación:

8(9): Estirar del 8 al 9 (bend)
C/C#: Arrastrar del acorde C al C# [slide]

            
            
Suggest correction
Creating personal tab
Creating personal tab
You can edit any tab online and save it as your Personal.

You can edit, replace or remove any tab part or add personal notes – all changes will be seen only by you.

Personal tabs can be accessed anytime from any device, even offline.
Learn more »
Give kudos to tab author, rate the tab!
1 2 3 4 5
comments
print report bad tab
guest
Wanna post a correction for this tab? Suggest correction