Oops, an error
Loading. Please wait.

Sin Mí tab

28 views 1 this week
no commentswrite comment
1 2 3 4 5
3 more votes to show rating
add to favorites
×
Save as Personal and add changes to this tab that will be seen only by you. Learn more ›
×
You can save this tab as Personal to edit and correct it or add notes. All changes will be seen only by you. Learn more »
launch autoscroll
font size
0
reset
how to read this tab
guitar tuner
edit
Autoscroll
slow
fast
+/-
esc
set tempo
stop
Hola, soy Alejo Garcia Bensi, y vi que las tablaturas de este tema
estan malo le faltan cosas, aca va la que esta bien.

Intro:

C#m  G#m  A#m  F#m

e|-----------------------------|
B|-----------------------------|  ( x4 )
G|-10-10-10-10-11-10-8-6-------|
D|-----------------------------|
A|-----------------------------|
E|-----------------------------|

Verso:

C#m
Hoy te vi venir
     G#m
Y no supe que decir
     A#m                     F#m
Parecias tan feliz en otros brazos

C#m
Yo se que te di
     G#m
Todo lo mejor de mi
     A#m                     F#m
Pero siento que mi amor no te alcanza

Puente: ( las notas las hace con palm muted )

        C#m  G#m
Y vi la luz
       A#m  F#m
Vi la luz
         C#m  G#m
Soy tan comun
       A#m  F#m
Soy tan comun

Estribillo:

               C#m           D#m
Y hoy estas sin mi, estas feliz
         F#m
estas feliz sin mi
               C#m           D#m
Y hoy estas sin mi, estas feliz
         F#m
estas feliz sin mi
Se que estas mejor sin mi

Repite la intro

Verso 2 :

C#m
Se que te olvide
     G#m
Pero hoy me pregunte
     A#m                     F#m
Si en verdad alguna vez me quisiste

C#m
Yo se que te di
     G#m
Todo lo mejor de mi
     A#m                       F#m
Pero siento que mi amor no es suficiente

Puente:

        C#m  G#m
Y vi la luz
       A#m  F#m
Vi la luz
         C#m  G#m
Soy tan comun
       A#m  F#m
Soy tan comun

Estribillo:

               C#m           D#m
Y hoy estas sin mi, estas feliz
         F#m
estas feliz sin mi
               C#m           D#m
Y hoy estas sin mi, estas feliz
         F#m
estas feliz sin mi
lara lara con mentir

            C#m             D#m
Si estas feliz, estas feliz sin mi
         F#m
estas feliz sin mi
Se que estas mejor sin mi
        C#m           D#m
Estas feliz, estas mejor asi
         F#m
se que estas mejor sin mi

Punteo :

e|--------------------------------------|
B|--------------------------------------|
G|-10-13-10-13/15---10-13-10-13-15b17---|
D|--------------------------------------|
A|--------------------------------------|
E|--------------------------------------|

e|---------------------------------------------|
B|---------------------------------------------|
G|10-13-10-13/15-13-10-8/10-8-6-8/10-8-6-------|
D|---------------------------------------------|
A|---------------------------------------------|
E|---------------------------------------------|

e|----------------|
B|----------------|
G|-10-13-10-13/15-|
D|----------------|
A|----------------|
E|----------------|

e|----------------------------------------------------------------------|
B|--------------------------14--14/16-14--------------------------------|
G|10-13-10-13/17-17-15-13-15--15---------15-15-13-10-6------------------|
D|----------------------------------------------------------------------|
A|----------------------------------------------------------------------|
E|----------------------------------------------------------------------|

( en la ultima nota deja sonando asi se acopla )

Puente:

C#m (Arpegia unicamente esta nota aunque la voz suba y baje)
e|------------|
B|------------|
G|-----6------|
D|---6--------|
A|-4----------|
E|------------|

Y vi la luz
Vi la luz
Soy tan comun
tan comun
Demasiado comun
tan comun

Estribillo:

               C#m           D#m
Y hoy estas sin mi, estas feliz
         F#m
estas feliz sin mi
               C#m         D#m
Y hoy estas sin mi, eres feliz
         F#m
estas feliz sin mi
lara lara con mentir

C#m       D#m        F#m
Si estas feliz, estas feliz sin mi
        C#m           D#m
Y hoy estas sin mi, estas feliz
         F#m
estas mejor sin mi

Termina repitiendo el estribillo, mientras hace el arpegio de C#m

Cualquier duda, correcion , etc, me avisan

            
            
Suggest correction
Creating personal tab
Creating personal tab
You can edit any tab online and save it as your Personal.

You can edit, replace or remove any tab part or add personal notes – all changes will be seen only by you.

Personal tabs can be accessed anytime from any device, even offline.
Learn more »
Give kudos to tab author, rate the tab!
1 2 3 4 5
comments
print report bad tab
guest
Wanna post a correction for this tab? Suggest correction