Oops, an error
Loading. Please wait.

Todo Por Esta Canción tab

11 views 1 this week
no commentswrite comment
1 2 3 4 5
3 more votes to show rating
add to favorites
×
Save as Personal and add changes to this tab that will be seen only by you. Learn more ›
×
You can save this tab as Personal to edit and correct it or add notes. All changes will be seen only by you. Learn more »
launch autoscroll
font size
0
reset
how to read this tab
guitar tuner
edit
Autoscroll
slow
fast
+/-
esc
set tempo
stop
Intro:


      F           Dm           F                     Dm

e------------------------------1~--------------------------|
B------------------------------1~--------------------------|
G------------------------------2~--------------------------|
D------------------------------3~--3-3-3-3s5~-3-3~-5s7~~---|
A------------------------------3~--------------------------|
E------------------------------1~--------------------------|


Verso 1:

F                        Dm
  Te vi parada en tu balcón,
           Bb                 C 
  vestido de crochet zapatos de charol. 
F                       Dm           Bb
  Mis ojos no podian creer tanta inocencia en vos
           C 
  y te quería hablar...  


Coro:

           F  
  Y si querés no sé cómo te lo diré
              Dm 
  tal vez cantando esta canción,
           Bb 
  y si no me entendés sólo me quedará
               C 
  tener que hacerte una invitación. 


             F
  Vamos a otro lugar si te parece bien 
           Dm
  te juro yo mi amor para vos. 
          Bb
  Y dame vos tu amor promete nada más 
             C
  que tan sólo será para mí. 


Intro


Verso 2:

F                       Dm
  Y tanto tiempo me llevó 
           Bb                 C
  desde aquella vez ganar tu corazón. 
F                       Dm
  Ahora que tengo tu calor  
             Bb               C
  te quiero recordar pedirte por favor.


Coro


Puente:

D#                            F
  Cuánto ha pasado entre los dos mi amor,
D#                           F 
  todo por culpa de esta canción, ou ou ou ouu yeah!!!
Bb                            Dm 
  Cuánto ha pasado entre los dos mi amor,
G                        C 
  por eso vuelvo a pedirte aquel favor.


Coro


Coro 2:

          F                                         Dm
Na na na na na ná... Na na na na na ná... Na na na na na na na ná-a-a-a!!!
          Bb                                        C
Na na na na na ná... Na na na na na ná... Na na na na na na na ná-a-a-a!!! (2) uo uo uooo!!!


Outro:

      F           Dm           F                     Dm         F

e------------------------------1~-------------------------------1---|
B------------------------------1~-------------------------------1---|
G------------------------------2~-------------------------------2---|
D------------------------------3~--3-3-3-3s5~-3-3~-5s7~~--------3---|
A------------------------------3~-------------------------------3---|
E------------------------------1~-------------------------------1---|


Esta rola va dedicada a mi nena Jennifer M. Arias hasta Catacamas, Olancho;
Honduras, C.A. y te quiero decir que eres el sueño de mi vida!!!!!

            
            
Suggest correction
Creating personal tab
Creating personal tab
You can edit any tab online and save it as your Personal.

You can edit, replace or remove any tab part or add personal notes – all changes will be seen only by you.

Personal tabs can be accessed anytime from any device, even offline.
Learn more »
Give kudos to tab author, rate the tab!
1 2 3 4 5
comments
print report bad tab
guest
Wanna post a correction for this tab? Suggest correction