Oops, an error
Loading. Please wait.

Perdón tab

97 views 1 this week
no commentswrite comment
1 2 3 4 5
3 more votes to show rating
add to favorites
×
Save as Personal and add changes to this tab that will be seen only by you. Learn more ›
×
You can save this tab as Personal to edit and correct it or add notes. All changes will be seen only by you. Learn more »
launch autoscroll
font size
0
reset
how to read this tab
guitar tuner
edit
Autoscroll
slow
fast
+/-
esc
set tempo
stop
Intro
e|-------------------------------------------|
B|-------------------------------------------|
G|-7-7-7-7-7-7-7-7-7-7-7-7-7-7-7-7-7-7-7-7-7-|
D|-------------------------------------------|
A|-------------------------------------------|
E|-------------------------------------------|

e|-------------------------------------------|
B|-------------------------------------------|
G|-------------------------------------------|
D|-5-5-5-5-5-5-5-5-5-5-5-5-5-5-5-5-5-5-5-5-5-|
A|-------------------------------------------|
E|-------------------------------------------|


e|----------------------------------------------------------------|
B|----------------------------------------------------------------|
G|------------5----------------5-------------5-7p-7p-7p-7-7-7p-7p-|
D|-7--5-7-5-7-------7--5-7-5-7----7--5-7-5-7----------------------| X2
A|----------------------------------------------------------------|
E|----------------------------------------------------------------|

A                   G
   Me vengo a despedir
                  Em
   Te vengo a decir
                    F
   Que ya no hace falta
                     A
   No hace falta mentir
                     G
   Te vengo a confesar
                       Em
  Lo que hice, lo hice mal
                F
  Y quiero arreglar la situación

e|----------------------------------------------------------------|
B|----------------------------------------------------------------|
G|------------5----------------5-------------5-7p-7p-7-7-7p-7p-7p-|
D|-7--5-7-5-7-------7--5-7-5-7----7--5-7-5-7----------------------| X2
A|----------------------------------------------------------------|
E|----------------------------------------------------------------|

                 A     C
   Vengo a pedir perdón
G    F              A         C     G
   Yo sé que tienes la, la razón
F              A   C   G
   No lo debí  hacer
F            A       C      G  F
   Pero aún trata de entender

e|---------------------------------|
B|---------------------------------|
G|------------5-7p-7p-7-7-7p-7p-7p-|
D|--7--5-7-5-7---------------------| X2
A|---------------------------------|
E|---------------------------------|

A               G
   Ella no me frenó
                    Em
   Más bien me insistió
              F
   Y mi conciencia no me ayudó
             A                  G
   Y Ahora todos se van y no vuelven

   Entiende
        Em                 F
   Que no puedo borrar mi error


e|----------------------------------------------------------------|
B|----------------------------------------------------------------|
G|------------5----------------5-------------5-7p-7p-7-7-7p-7p-7p-|
D|-7--5-7-5-7-------7--5-7-5-7----7--5-7-5-7----------------------| X2
A|----------------------------------------------------------------|
E|----------------------------------------------------------------|

              A     C
   Vengo a pedir perdón
G    F                  A         C     G
   Yo sé que tienes la, la razón
F              A   C   G
   No lo debí  hacer
F            A       C      G  F
   Pero aún trata de entender

A-C G-F

                   A
   Vengo a pedir perdón
                     C
   Yo se que tienes la, la razón
                 G
   No lo debí  hacer
                  F
   Pero aún trata de entender (2x)
                     A  C  G
   Vengo a pedir perdón
F
Ouououou

A C G F

                 A  C  G
   Vengo a pedir perdón
F
Ouououou


e|----------------------------------------------------------------|
B|----------------------------------------------------------------|
G|------------5----------------5-------------5-7p-7p-7-7-7p-7p-7p-|
D|-7--5-7-5-7-------7--5-7-5-7----7--5-7-5-7----------------------| X2
A|----------------------------------------------------------------|
E|----------------------------------------------------------------|


Acordes
A= 7556xx C= x355xx G= 3554xx F 1332xx Em 022000

            
            
Suggest correction
Creating personal tab
Creating personal tab
You can edit any tab online and save it as your Personal.

You can edit, replace or remove any tab part or add personal notes – all changes will be seen only by you.

Personal tabs can be accessed anytime from any device, even offline.
Learn more »
Give kudos to tab author, rate the tab!
1 2 3 4 5
comments
print report bad tab
guest
Wanna post a correction for this tab? Suggest correction