Oops, an error
Loading. Please wait.

Espera Y Verás tab

40 views 3 this week
no commentswrite comment
1 2 3 4 5
3 more votes to show rating
add to favorites
×
Save as Personal and add changes to this tab that will be seen only by you. Learn more ›
×
You can save this tab as Personal to edit and correct it or add notes. All changes will be seen only by you. Learn more »
launch autoscroll
font size
0
reset
how to read this tab
guitar tuner
edit
Autoscroll
slow
fast
+/-
esc
set tempo
stop
INTRO1:

1|------------------------------------------------
2|-----10-10-10-10-10--9-9-9-9-9--8-8-8-8-8-------
3|------7--7--7--7-7---7-7-7-7-7--7-7-7-7-7-------
4|------------------------------------------------
5|------------------------------------------------
6|------------------------------------------------

INTRO2:

1|-------------------------------------------------
2|-------------------------------------------------
3|--7--7-7-7---------------------------------------
4|--7--7-7-7---7---------------5----------7-7-7----
5|--5--5-5-5---7---7/9-7-------5---7/9-10----------
6|-------------5---------10-9--3-------------------

1|-----------------------------------10-10-10------|
2|-------------------------10-10-10--8--8--8-------|
3|--7--7-7-7---------------7--7--7-----------------|
4|--7--7-7-7---7--7-7-7----------------------------|
5|--5--5-5-5---7--7-7-7----------------------------|
6|-------------5--5-5-5----------------------------|

Riff 1:

1|------------------------------------------------------------------|
2|----------7-7-7------------7-------------7-7-7-------------7------|
3|--/7------------9-7----------9-7---------------9-7-------7---9----|
4|-----9-7-------------9-7------------9-7-------------9-7-----------|
5|------------------------------------------------------------------|
6|------------------------------------------------------------------|

D           A         G          A
Estuve en lugares que tú no conoces
D           A         G         A
y en situaciones que nunca imaginé
D          A    G         A
yo estuve aquí y estuve allá
D        A            G        A
y ahora que me vienes a reprochar

1|-----------------------------------------------------|
2|-----------7----7-----7------------------------------|
3|--7~---7~----9-----7---------------------------------|
4|----------------------------5--5-5-----7--7-7--------|
5|----------------------------5--5-5-----7--7-7--------|
6|----------------------------3--3-3-----5--5-5--------|

D          A        G     A
Pasó algún tiempo y sigo acá
D          A    G         A
dime que harías tu en mi lugar
D             A   G      A
dices que muerto vas a estar
A              A       G         A
yo creo que es un pretexto nada más


==  INTRO 2  ==


D     A     G          A
En el 70 pedían por la paz
D          A       G     A
y en la oficina ahora están
D     A  G         A
en el 82 quisieron guerra
D           A       G                 A
y hoy no quieren ni oir ni hablar de ella


CORO:

D        A        G     A
Todo lo que hemos logrado
D          A          G  A
fue por un precio muy caro
D        A           G  A
todo lo que yo he logrado
D        A             G  A
lo pagué un precio muy caro


Riff2:

1|-------------------------------------------------------------       -------|
2|--7u--7u--7u------7-7-7------7u--7u--7u----------------------       -------|
3|-------------9-7--------9----------------9-------------------       -------|
4|--------------------------------------------5--5-5---7--7-7--   x2  ---7---|
5|--------------------------------------------5--5-5---7--7-7--       ---7---|
6|--------------------------------------------3--3-3---5--5-5--       ---5---|

SOLO:

1|----------------------|
2|----------------------|
3|----------------------|
4|-----7---          ---|
5|-----5--- x Varias ---|
6|----------------------|

1|---2---10-----5-----7-5-7-5---2~-----
2|---3---13b15--6-----8-6-8-6---3~-----
3|---2----------5-----7-5-7-5---2~-----
4|-------------------------------------
5|-------------------------------------
6|-------------------------------------

1|---2---10-------5---7-5-7--------10---------10----
2|---3---13b15----6---8-6-8---8/10----10-8-10-------
3|---2------------5---7-5-7-------------------------
4|--------------------------------------------------
5|--------------------------------------------------
6|--------------------------------------------------

1|---2---10------5--10-----10-----7--10-----10-----10-------|
2|---3---13b15---6--13b15--13b15--8--13b15--13b15--13b15----|   x 2 veces
3|---2-----------5----------------7-------------------------|
4|----------------------------------------------------------|
5|----------------------------------------------------------|
6|----------------------------------------------------------|

1|----------------------------------------------------------|
2|------7----7-----7----------------7-----7-----7-----------|
3|----7--9-7---9-7---9-7-----------7--9-7---9-7---9-7-------|  x 2 veces
4|-/9--------------------9-7----/9--------------------9~----|
5|----------------------------------------------------------|
6|----------------------------------------------------------|

1|---------------------------------------
2|---------------------------------------
3|------7-----7-----7-----7-----7-----7--
4|--7h9---7h9---7h9---7h9---7h9---7h9----
5|---------------------------------------
6|---------------------------------------

1|----------------------------------------------
2|----------------------------------------------
3|--9b11-7-9--7-------------------7-9b11-7-9----
4|--------------9-7-----------7-9---------------
5|------------------9-7-5-7-9-------------------
6|----------------------------------------------

1|------------------------------------------------------------------------
2|------------------------------------------------------------------------
3|--7------------------7-9b11-7-9---7-------------------7-----------7~----
4|---9-7-----------7-9----------------9-7-----------7-9---7---------7~----
5|-------9-7-5-7-9------------------------9-7-5-7-9---------9-7-5---5~----
6|------------------------------------------------------------------------

1|---------------------------------2----5----10----10---------------------
2|------3-5/7--7-7-7p5--3h5p3------5b7--8b10-13b15-13b15--------10-10-----
3|--2-4------------------------4~----------------------------/7-----------
4|------------------------------------------------------------------------
5|------------------------------------------------------------------------
6|------------------------------------------------------------------------

1|--------------------17---------------------17-----17-----17-------------
2|--------15-17-17/19----19-17-15----17-15---20b22--20b22--20b22----------
3|--14/16-------------------------16--------------------------------------
4|------------------------------------------------------------------------
5|------------------------------------------------------------------------
6|------------------------------------------------------------------------

1|------------------------------------------------------------------------
2|------------------------------------------------------------------------
3|-------7-------7-------7-------7-------7-------7--9-7~------------------
4|-7h9p7---7h9p7---7h9p7---7h9p7---7h9p7---7h9p7--------------------------
5|------------------------------------------------------------------------
6|------------------------------------------------------------------------

1|------------------------------------------------------------------------
2|------------------------------------------------------------------------
3|-------7-------7-------7-------7-------7-------------7~-----------------
4|-7h9p7---7h9p7---7h9p7---7h9p7---7h9p7---7-7-7-7-----7~-----------------
5|-----------------------------------------------------5~-----------------
6|------------------------------------------------------------------------


D          A      G        A
Pasó algún tiempo y sigo acá
D           A    G          A
dime que harías tu en mi lugar
D           A  G           A
yo estuve aquí y estuve allá
D      A              G        A
pero siempre fuera de la sociedad.


===========  CORO  ==========

*reggae*

D*        A*       G*      A*
El tiempo te lo dirá
D*        A*       G*      A*
Uohhhh  ohhh  ohhhhhhhhhhhh
D*        A*       G*     A*
el tiempo me lo dirá
D*        A*       G*       A*
Uohhhhh  ohhh  ohhhhhhhhhhhh


D      A         G    A
Espera, espera y verás
D      A          G    A
espera, espera y verás
D      A         G    A
Espera, espera y verás
D      A          G    A
espera, espera y verás


1|-------------------------------------------------------------
2|--7u--7u--7u------7-7-7------7u--7u--7u----------------------
3|-------------9-7--------9----------------9-------------------
4|--------------------------------------------5--5-5---7--7-7--   x2
5|--------------------------------------------5--5-5---7--7-7--
6|--------------------------------------------3--3-3---5--5-5--


D      A         G    A
Espera, espera y verás
D      A          G    A
espera, espera y verás
D      A         G    A
Espera, espera y verás
D      A            G
espera, espera y verás
A                    D
La lucha hasta el final


3|----------------|
4|----------------|
5|----------------|
6|-------5~/10~---|


=======================  Explicacion de algunas cosas  ====================

10
13b15 = se tocan las 2 cuerdas y se eleva la que pisa el traste 13
        de modo que llegue a sonar como el traste 15

G: SOL
D: RE
A: LA

Usen notas quintas, y en algunas partes como los versos, suenan mejor con
Palmuting

En la parte que dice *reggae* se toca con estas notas

   D*         A*        G*

1|--2--|  1|--0--|  1|--0--|
2|--3--|  2|--5--|  2|--3--|
3|--2--|  3|--6--|  3|--4--|
4|--0--|  4|--7--|  4|--5--|
5|--x--|  5|--x--|  5|--x--|
6|--x--|  6|--x--|  6|--x--|

7u = cuando tocan el traste levantan el dedo pero sin soltar la cuerda,
algo como un palmuting.

La cancion esta excelente, practiquenla escuchandola para que no
digan que esta mal.

Alguna duda o correcion o otra cosa a mi mail: ivanzk8@ -
Evan cornejo

Y nada, aguanten los viola, los padres del punk en español!

            
            
Suggest correction
Creating personal tab
Creating personal tab
You can edit any tab online and save it as your Personal.

You can edit, replace or remove any tab part or add personal notes – all changes will be seen only by you.

Personal tabs can be accessed anytime from any device, even offline.
Learn more »
Give kudos to tab author, rate the tab!
1 2 3 4 5
comments
print report bad tab
guest
Wanna post a correction for this tab? Suggest correction