Oops, an error
Loading. Please wait.

Extraña Sensación tab

16 views 1 this week
no commentswrite comment
1 2 3 4 5
3 more votes to show rating
add to favorites
×
Save as Personal and add changes to this tab that will be seen only by you. Learn more ›
×
You can save this tab as Personal to edit and correct it or add notes. All changes will be seen only by you. Learn more »
launch autoscroll
font size
0
reset
how to read this tab
guitar tuner
edit
Autoscroll
slow
fast
+/-
esc
set tempo
stop
INTRO: 1---------------------------------
       2---------------------------------
       3--------------5-5-------------5--
       4------5-5-------------5-5--------  X4
       5--3-3-----3-3-----3-3-----3-3----
       6---------------------------------


C
Busco algo que me mueva
                        G
quiero ver alguna rebelión

       1-------------------------
       2-------------------------
       3---5-4-------5-4---------
       4-------3-5-3-----3-5-3---
       5-------------------------
       6-------------------------

C
afuera en las calles
                   G
adentro de tu corazón.

       1-------------------------
       2-------------------------
       3---5-4-------5-4-7-5-4---
       4-------3-5-3-------------
       5-------------------------
       6-------------------------


A       F
Extraña filamación
A             F
cuando cambia de color
A              F
cualquier transformación
    G
me va a llenar de satisfacción.

       1-------------------------------------
       2-------------------------------------
       3-------------------------------------
       4-------------------------------------
       5---------------5-5------------------- X2
       6---5-5-5-3-5-5-----5-3--5-5-5-3-5-5--


F - G - C

          F           G             C
Porque será que esta todo siempre igual
          F           G           A
Porque será que nos quieren maniatar.

C
Busco algo que me mueva
                        G
quiero ser alguna rebelión.

       1-------------------------
       2-------------------------
       3---5-4-------5-4---------
       4-------3-5-3-----3-5-3---
       5-------------------------
       6-------------------------

C
Afuera por las calles
                      G
no quiero ser espectador.

       1-------------------------
       2-------------------------
       3---5-4-------5-4-7-5-4---
       4-------3-5-3-------------
       5-------------------------
       6-------------------------


A        F
Extraña filamción
A             F
cuando cambia de color
A      F
una revolucion
G                              C
me va a llenar de satisfación.
       F             G             C
Porque será que está todo siempre igual.
       F             G           A
Porque será que nos quieren maniatar.

C
Extraña sensacion
C
Extraña vibración.

C

            
            
Suggest correction
Creating personal tab
Creating personal tab
You can edit any tab online and save it as your Personal.

You can edit, replace or remove any tab part or add personal notes – all changes will be seen only by you.

Personal tabs can be accessed anytime from any device, even offline.
Learn more »
Give kudos to tab author, rate the tab!
1 2 3 4 5
comments
print report bad tab
guest
Wanna post a correction for this tab? Suggest correction