Oops, an error
Loading. Please wait.

Más Allá Del Bien Y Del Mal tab

version 1
version 1

Whole song

437 views 9 this week
no commentswrite comment
1 2 3 4 5
3 more votes to show rating
add to favorites
×
Save as Personal and add changes to this tab that will be seen only by you. Learn more ›
×
You can save this tab as Personal to edit and correct it or add notes. All changes will be seen only by you. Learn more »
launch autoscroll
font size
0
reset
how to read this tab
guitar tuner
edit
Autoscroll
slow
fast
+/-
esc
set tempo
stop
MAS ALLA DEL BIEN Y EL MAL  -  LOS VIOLADORES

Q´  tal gente bueno aki les traigo esta canción de los violadores muybuena
todo esta bien al menos eso creo disfrútenla ps esta bien detallada no se
pueden ekivocar...ah un consejo se escucha mas xevere cuando se toca con 2
 guitarras uno con distorsion para q haga los punteos y los acordes con
kintas y la otra q acompañe con acordes normales ps

Intro:
e. -----------------------------
B.------------------------------
G.------------------------------
D.-----4---5---4-----4---5----4-     (esto se repite 4 veces ok)
A.-2-2---2---2---2-2---2---2----
E.------------------------------

Solo # 1:

     Bm                   G              F#m
e.---------------------------------------------------------
B.---------------------------------------------------------
G.---------------------------------------------------------
D.------------------------2---4-2-0-2-0-------4-2----------
A.---2-2-4-5-2---2-4-5-------------------4---------4-5-2---
E.---------------------------------------------------------

     Bm                   G              F#m
e. --------------------------------------------------------
B.---------------------------------------------------------
G.---------------------------------------------------------
D. -----------------------2---4-2-0-2-0-------4-2----------
A. --2-4-5-2------2-4-5------------------4--------4-5-2----
E.---------------------------------------------------------

SIm
Comienza el juego ya
en el viejo salon            A. ---2-0-----------  punteo pekeño  # 1
LA
su señoria atenta
observa desde el visor       A. ---5-5-0-0-2-----  punteo pekeño  # 2
SIm
negras y blancas hay
como en el ajedrez           A. ---2-0-----------
LA
solo que la vida
en juego está  esta vez

Solo # 2:      se acompaña con   ( Sim - La   x2 )

           Bm              A              Bm
e. ------------------------------------------
B.-------------------7-----------------------
G.-------7---------7---9-7-6--------7-6------
D.---5-7---9-----9-------------9-7------7-9--
A.-------------------------------------------
E.-------------------------------------------

               A
e. --------------------------------------------
B.-------7-----------------8-7-----------------
G.-----7---9-7-6---------------9-7-6-----------
D.---9-------------9-7-----------------9-7-7-9-
A.---------------------------------------------
E.---------------------------------------------

Bm
No hay limite de tiempo
pero hay determinacion
A
libertad para mover las piezas,
F#m
pero sin esperanza que haya un ganador
Em
Por que este juego es
F#m
lo que siempre fue
     G                A              Bm
una bota pateando el tablero de ajedrez

Repetir Solo # 1

Bm
Las blancas siempre dan
el jaque mate ganador         punteo pekeño # 1
A
porque siempre las elige
el mejor jugador                  punteo pekeño # 2
Bm
pero nada impide
al de las  negras ser el triunfador
A
siempre es lo mismo
      F#m
para cuando una nueva opcion
mejor seria estar
mas alla del bien
mas alla del mal
mas allaaaa..

Solo   # 3:    este solo empieza cuando dice:  mejor seria estar ......
ya la diferenciaran.. este punteo se acompaña con estos acordes:

               Bm         A        G           F#m
e.---------------------------------------------------------
B.---------------------------------------------------------
G.---------------------------------------------------------
D.---------------------------------5-4-2-4-----4-2---------
A.----5-4-0-2---5-4-2-4---7-5-4-5-------------------4-5-2--
E.---------------------------------------------------------

     Em      F#m        G A  Bm   Em     F#m     G A Bm
e.---------------------------------------------------------
B.---------------------------------------------------------
G.---------------------------------------------------------
D.----------------2-0-0--------------------------2-4-------
A.---2-4-5-5-4-4--------5-4-0-2---2-2-4-5-5-4-4-------2----
E.---------------------------------------------------------

     Bm            A                    G         F#m
e.---------------------------------------------------------
B.-------7-----------------7-----------------6-7-----------
G.-----7---9-7-6---------7---9-7-6--------7----------------
D.---9-------------9-7-9------------9-5-9------------------
A.---------------------------------------------------------
E.---------------------------------------------------------


Em                                     F#m
Por que este juego es lo que siempre fue
  G                              A        Bm      / se repite 2 veces
una bota pateando el tablero de ajedrez          /

Bueno esta rola va dedicada a Los Violadores ps y a mi banda q los tenemos
de influencia saludos pa los Antiez3  y q viva el punk carajo!!!!
Ah otra cosa px el punk no es solo vestirse de negro ps gente dejen de
pensar eso el punk es un modo de pensar asi q piensen ......cualkier cosa
mi correo es link_romance@

            
            
Suggest correction
Creating personal tab
Creating personal tab
You can edit any tab online and save it as your Personal.

You can edit, replace or remove any tab part or add personal notes – all changes will be seen only by you.

Personal tabs can be accessed anytime from any device, even offline.
Learn more »
Give kudos to tab author, rate the tab!
1 2 3 4 5
comments
print report bad tab
guest
Wanna post a correction for this tab? Suggest correction