Oops, an error
Loading. Please wait.

Sólo Una Agresión tab

224 views 1 this week
no commentswrite comment
1 2 3 4 5
2 more votes to show rating
add to favorites
×
Save as Personal and add changes to this tab that will be seen only by you. Learn more ›
×
You can save this tab as Personal to edit and correct it or add notes. All changes will be seen only by you. Learn more »
launch autoscroll
font size
0
reset
how to read this tab
guitar tuner
edit
Autoscroll
slow
fast
+/-
esc
set tempo
stop
ACORDES:> C D E F G

intro:C D E F G

  1------------------------------------------------------------
  2------------------------------------------------------------
  3--5-4-5-4--------5-4-5-4------5-4-5-4-------5-4-5-4---------x2
  4-----------5-------------5------------5-------------5-------
  5--------------3-3----------3-3----------3-3-----------3-3---
  6------------------------------------------------------------


C                  D
no temo a tus golpes no me dañan ya
C                    D
si hasta me producen cierta felicidad
E                      F
me muestras tus dientes sacas tus puñal
E               F       G
puede ser moral tambien asesinar


C D E F G

C              D
solo una agresion (solo una agresion)
E                F         G
el gato no sabe que tortura al raton
C          D
sin mala intension (sin mala intension)
E                       F         G
para que sirve entonces la garra del leon


intro:C D E F G

C                      D
estan en pie de guerra, les gusta luchar
C                 D
sin que en ello halla algo personal

E                F
el fantasma ronda, la violencia esta
E                  F     G
un espectro habita, en tu intimidad


C D E F G

C             D
solo una agresion (solo una agresion)
E                F          G
el gato no sabe que tortura al raton
C             D
sin mala intension (sin mala intension)
E                        F       G
para que sirve entonces la garra del leon


intro x 2 y desp solo:

 1-------------------------------------
 2-------------------------------------
 3--5-4-5-----5-4-5--------5-4-5-------
 4--------5---------5----5-------5-----
 5----------3----------3-----------3---
 6-------------------------------------

 1------------------------------------------15-15--------------15-15-
 2---------------------------------------13-------13----13---13------
 3--5-4-5-7-5-7-9-7-9-10-9-10-12-12---12-------------12---12---------
 4-------------------------------------------------------------------
 5-------------------------------------------------------------------
 6-------------------------------------------------------------------


C                       D
sangre en las paredes crimen y ejecucion
E            F       G
psicodrama de television
C            D
solo una agresion (solo una agresion)
E                F          G
el gato no sabe que tortura al raton
C             D
sin mala intension (sin mala intension)
E
para que sirve entonces la garra del le..
C                                        D
accion! accion! accion! es solo una agresion
                                         E
        accion! accion! es solo una agresion
 F              G
...solo una agresion.....
Suggest correction
Creating personal tab
Creating personal tab
You can edit any tab online and save it as your Personal.

You can edit, replace or remove any tab part or add personal notes – all changes will be seen only by you.

Personal tabs can be accessed anytime from any device, even offline.
Learn more »
Give kudos to tab author, rate the tab!
1 2 3 4 5
comments
print report bad tab
guest
Wanna post a correction for this tab? Suggest correction