Oops, an error
Loading. Please wait.

Verso Por La Niña Muerta tab

53 views 1 this week
no commentswrite comment
1 2 3 4 5
3 more votes to show rating
add to favorites
×
Save as Personal and add changes to this tab that will be seen only by you. Learn more ›
×
You can save this tab as Personal to edit and correct it or add notes. All changes will be seen only by you. Learn more »
launch autoscroll
font size
0
reset
how to read this tab
guitar tuner
edit
Autoscroll
slow
fast
+/-
esc
set tempo
stop
(Cueca)

INTRO

                RE                    SOL      RE-SOL/RE-SOL
E||-------------2-2-2-2-|-------------3-3-3-3-|---------------------|
B||-------------3-3-3-3-|---------------------|---------------------|
G||-------------2-2-2-2-|---------------------|---------------------|
D||-----------0---------|---------0-----------|---------------------|
A||---------0-----------|-3-3-2-3-----2-2-2-2-|---------------------|
E||-3-3-2-3-------------|-----------3-3-3-3-3-|---------------------|


SOL                   -RE

Cuando yo salí de aquí
                       SOL
dejé mi guagua en la cuna,
                     RE
creí que la mamita Luna
                     SOL
me L'iba a cuidar a mí,
                    -RE
pero como no fue así
                     SOL
me lo dice en una carta
                        RE
pa'que el alma se me parta
                    SOL
por no tenerla conmigo;
   DO
el mundo será testigo

E||------------------------------------|
B||------------------------------------|
G||------------------------------------|
D||-2-----------------------0----------| Sol-Re-Sol/Puente=Intro
A||-----------------------------0------|
E||----------2---2---2---2----------3--|
    que_hei' de pa-  gar es-ta  fal-ta.


La bauticé en la capilla,
pa'que no quedara mora;
cuando llegaba la aurora
le enjuagaba las mejillas
con agua de candelillas
que dicen que es milagrosa.
Mas se deshojó la rosa;
muy triste quedó la planta,
así como la que canta
su pena más dolorosa.

Llorando de noche y día
se terminarán mis horas,
perdóname, gran señora,
digo a la Virgen María
no ha sido por culpa mía,
yo me declaro inocente,
lo sabe toda la gente
de que no soy mala 'maire,
nunca pa'ella faltó el aire
ni el agua de la vertiente.

Ahora no tengo consuelo,
vivo en pecado mortal,
y amargas como la sal
mis noches son un desvelo;
es contar y no creerlo,
parece que la estoy viendo,
y más cuando estoy durmiendo
se me viene a la memoria;
ha de quedar en la historia
mi pena y mi sufrimiento.


*************************************************************

Este es mi humilde aporte, lo comparto con mucho sentimiento.
Si alguien lo mejora, bienvenido sea!
Saludos desde la Isla de Pascua, Maururu!

            
            
Suggest correction
Creating personal tab
Creating personal tab
You can edit any tab online and save it as your Personal.

You can edit, replace or remove any tab part or add personal notes – all changes will be seen only by you.

Personal tabs can be accessed anytime from any device, even offline.
Learn more »
Give kudos to tab author, rate the tab!
1 2 3 4 5
comments
print report bad tab
guest
Wanna post a correction for this tab? Suggest correction