Oops, an error
Loading. Please wait.

Flor De Té tab

by Virulo
17 views 1 this week
no commentswrite comment
1 2 3 4 5
3 more votes to show rating
add to favorites
×
Save as Personal and add changes to this tab that will be seen only by you. Learn more ›
×
You can save this tab as Personal to edit and correct it or add notes. All changes will be seen only by you. Learn more »
launch autoscroll
font size
0
reset
how to read this tab
guitar tuner
edit
Autoscroll
slow
fast
+/-
esc
set tempo
stop
SALUDOS DESDE LA PUERTA DE ENTRADA AL MUNDO MAYA

ESTA ROLA LA SAQUE DE UN VIDEO QUE ANDA EN LA WEB

ESTA CANCION SE HACE CON LA VOZ DE CHINITO,
ES DECIR, PRONUNCIANDO LA ?R? COMO L. OK???

PARA EL INTRO CONFIGURA TU PEDALERA SI TIENE EFECTO DE STRINGS

ESTO ES PARA CREAR EL AMBIENTE DE ESCALA CHINA
(EFECTOS DE GONG, ETC) ORIGINAL LO HACE UN TECLADO
PERO AQUÍ SE LOS PUSE PARA LA LIRA COMO YO LO HAGO

INTRO:

e--------------8v---13-8v----------8-13-8--------------------
b-8v------8--11---------------8-11--------11-8----8----------
G------10--------------------------------------10---10-8v----
D------------------------------------------------------------
A------------------------------------------------------------
E------------------------------------------------------------


e--------------8v---13-8v----------8-13-8--------------------
b-8v------8--11---------------8-11--------11-8----8----------
G------10--------------------------------------10---10-8v----
D------------------------------------------------------------
A------------------------------------------------------------
E------------------------------------------------------------


Cm                 G      Cm
La bella princesa flor de té
         G                Cm
Era la amante de Chang Kaiché

(cambia a ritmo beguine:)

              G
El hacía el amor
             Cm
Sin auto control
             G
Siempre terminaba
                Cm
Cuando ella empezaba
       Fm                      Cm
La princesa insatisfecha se quedaba
         G#       G
Mientras el eyaculaba

Hablado: (quedan el punteo de fondo:)

Triste e insatisfecha,
LA princesa vagaba
por los jardines del palacio
Cuando se encontró de pronto
con una fea y horrorosa rana

Croak Croak Croak? una rana?

La rana le dijo así:
soy un príncipe encantado
dame un beso y me desencantarás.

Como la princesa no creía en eso,
Siguió adelante,
pero la fea y horrorosa rana

Croak Croak Croak?  insistió:
soy un príncipe encantado
dame un beso y me desencantarás.

Finalmente, la princesa, cansada
Le dio un besito a la rana.
Y ante sus ojos maravillados,
La fea y horrorosa rana,
se fue convirtiendo
en un hermoso príncipe
?totalmente desnudo?

Como la princesa estaba tan insatisfecha
Inmediatamente se excitó
y quiso abrazarlo, besarlo?
El príncipe retrocedió asustado diciéndole:
No, no lo hagas porque quedarás encantada!!!!
La princesa lo hizo?
y quedo encantadiiiisima!!!

Moraleja, moraleja; es lo más importante:

?El hombre que eyacula pronto es un tonto?

FIN

            
            
Suggest correction
Creating personal tab
Creating personal tab
You can edit any tab online and save it as your Personal.

You can edit, replace or remove any tab part or add personal notes – all changes will be seen only by you.

Personal tabs can be accessed anytime from any device, even offline.
Learn more »
Give kudos to tab author, rate the tab!
1 2 3 4 5
comments
print report bad tab
guest
Wanna post a correction for this tab? Suggest correction