Oops, an error
Loading. Please wait.

Que Hacemos Con Mamá tab

68 views 1 this week
no commentswrite comment
1 2 3 4 5
3 more votes to show rating
add to favorites
×
Save as Personal and add changes to this tab that will be seen only by you. Learn more ›
×
You can save this tab as Personal to edit and correct it or add notes. All changes will be seen only by you. Learn more »
launch autoscroll
font size
0
reset
how to read this tab
guitar tuner
edit
Autoscroll
slow
fast
+/-
esc
set tempo
stop
TRANSCRIPCION REALIZADA POR
AcordesMusical Villavicencio, Meta,  Colombia
acordesmusical@


Em          B7             Em             B7

E -----------5----------7-5-3----------5-7-8--------
B -------4-5----------------------------------------
G -4-3-4-----------4-3-4---------4-3-4---------4-3-4
D---------------------------------------------------
A---------------------------------------------------
E---------------------------------------------------

     Em               Am

E-10-8-7---7-8-10-10-10-10---8-8-
B--------------------------------
G--------------------------------
D--------------------------------
A--------------------------------
E--------------------------------

            Em               B7

E-5-7-8-8-8-8-7-7---0-5-7-7-7-7--
B--------------------------------
G--------------------------------
D--------------------------------
A--------------------------------
E--------------------------------

                     Em

E-7/8-7-5-------------12---/
B---------8-7-5-8--12------/
G--------------------------/
D--------------------------/
A--------------------------/
E--------------------------/

la intro se repite en el intermedio del tema

Em               B7                        Em
Me extraña esa pregunta, la que me haces hermano,
                  B7                   Em       Em7
Me extraña y me agoniza no puedo comprender,
                   Am                        Em
Que hoy vengas a decirme que hacemos con mi madre.
                    B7                     Em        Em7
Mi madre que es la tuya que nos ha dado el ser.

                 Am                         Em
Si es ese el pensamiento que tienes en la mente,
                B7                 Em    Em7
Mejor no digas nada cállate por favor,
                       Am                  Em
Que mientras yo este vivo tenelo bien presente,
               B7                    Em
Ella estará conmigo, conmigo con mi amor.


Em                B7                   Em
Tal vez estés pensando al verla tan viejita
                 B7                    Em   Em7
Enferma con sus años, sin fuerza para andar
                  Am                   Em
Que ella es una molestia y eso no justifica
                   B7                        Em    Em7
Que hoy quieras proponerme llevarla a otro lugar.

            Am                    Em
Ahora más necesita hermano de nosotros
              B7                   Em      Em7
Brindemosle cariño, ternura y no  piedad
                 Am                         Em
Y da gracias al Cielo a Dios que aun la tenemos
                 B7
No vuelvas a decirme
                 Em                (FIN   B7   Em)
Que hacemos con mamá.

            
            
Suggest correction
Creating personal tab
Creating personal tab
You can edit any tab online and save it as your Personal.

You can edit, replace or remove any tab part or add personal notes – all changes will be seen only by you.

Personal tabs can be accessed anytime from any device, even offline.
Learn more »
Give kudos to tab author, rate the tab!
1 2 3 4 5
comments
print report bad tab
guest
Wanna post a correction for this tab? Suggest correction