Oops, an error
Loading. Please wait.

Fuego Y Destrucción chords

by Viticus
11 views 1 this week
no commentswrite comment
1 2 3 4 5
3 more votes to show rating
add to favorites
×
Save as Personal and add changes to this tab that will be seen only by you. Learn more ›
×
You can save this tab as Personal to edit and correct it or add notes. All changes will be seen only by you. Learn more »
launch autoscroll
font size
0
reset
transpose
0
reset
simplify chords
display chords
guitar tuner
edit
Autoscroll
slow
fast
+/-
esc
set tempo
stop
Strumming
There is no strumming pattern for this song yet. and get +5 IQ
Intro: A5

Riff1X4 sobre A5


A5(alternando con C)
Fuego y destrucción,

es todo lo que el día 23 ocurrió.

Fuego y destrucción,

no puedo creer todavía lo que pasó.-

RiFF1X 2

Fuego y destrucción,
tan solo había llamas a mi alrededor.
Fuego y destrucción,
no quedo nada en pie la puta que lo parió.-

D
Humo sobre el agua
                  A5 A5 C A5 A5 C...
y el siniestro calor.-

D

Riff2


Solos sobre riff1

Fuego y destrucción,
tan solo había llamas a mi alrededor.
Fuego y destrucción,
Lagartos y bagayos huyen por el calor.-

Solos sobre estribo y sobre riff2

más solos sobre riff1

final A

Riff1:

E----------------------------------------------
B----------------------------------------------
G----------------------------------------------
D----------------------------------------------
A--------3----5--------3--3---------------------
E-0-3-5-5--5-3--0-3-5-5-5----------------------


Riff2:                          Final
E-----------------------------/----------------
B-----------------------------/----------------
G---------------2-------------/----------------
D-----2-2-5-2--------2-2-5-2-5/--7-5-----------
A--2-5--------5---2-5---------/------7-6-5-----
E-----------------------------/------------8-5-

            
            
Suggest correction
Creating personal tab
Creating personal tab
You can edit any tab online and save it as your Personal.

You can edit, replace or remove any tab part or add personal notes – all changes will be seen only by you.

Personal tabs can be accessed anytime from any device, even offline.
Learn more »
Give kudos to tab author, rate the tab!
1 2 3 4 5
comments
print report bad tab
guest
Wanna post a correction for this tab? Suggest correction