Oops, an error
Loading. Please wait.

La Historia Detrás De La Canción tab

20 views 1 this week
no commentswrite comment
1 2 3 4 5
3 more votes to show rating
add to favorites
×
Save as Personal and add changes to this tab that will be seen only by you. Learn more ›
×
You can save this tab as Personal to edit and correct it or add notes. All changes will be seen only by you. Learn more »
launch autoscroll
font size
0
reset
how to read this tab
guitar tuner
edit
Autoscroll
slow
fast
+/-
esc
set tempo
stop
NOTA: Esta canción esta simplificada a un nivel de principiante
si escuchas bien la canción podrás tocar mas notas en el arpegio.

Acordes en quintas utilizados en esta canción:

   F5  C5  G5  D5  B5   A5
e-------------------------------------------------
B-------------------------------------------------
G-------5-------7---4-----------------------------
D---3---5---5---7---4----7------------------------
A---3---3---5---5---2----7------------------------
E---1-------3------------5------------------------


Intro:

Puedes tocar lo que pongo a continuación durante la letra
hasta que empiece la distorsión o si gustas con los acordes.

            Am                         G

e----------3---------3--------------3----------3-------
B------1---------1--------------0----------0-----------
G----2---1-----2---2----------0---0------0----0--------
D--2---------2-------------0-----------0---------------
A------------------------------------------------------
E------------------------------------------------------


El tiempo sigue su marcha ???yo aun me encuentro atrapado

            Am                         G

e----------3---------3--------------3----------3-------
B------1---------1--------------0----------0-----------
G----2---1-----2---2----------0---0------0----0--------
D--2---------2-------------0-----------0---------------
A------------------------------------------------------
E------------------------------------------------------

         A los recuerdos que ??????confunden mi cordura

            Am                         G

e----------3---------3--------------3----------3-------
B------1---------1--------------0----------0-----------
G----2---1-----2---2----------0---0------0----0--------
D--2---------2-------------0-----------0---------------
A------------------------------------------------------
E------------------------------------------------------


* Aquí empieza la distorsión


            F5                C5     G5
Entre el sueño de morir a tu lado...oooo

         F5            C5          G5
Y el dolor de que todo quedó olvidado


Es una historia perdida en un ??lago Muchas manos ayudaron

             Am                         G

e----------3---------3--------------3----------3-------
B------1---------1--------------0----------0-----------
G----2---1-----2---2----------0---0------0----0--------
D--2---------2-------------0-----------0---------------
A------------------------------------------------------
E------------------------------------------------------

a hundirla y ni tu ni yo ?????la pudimos salvar

             Am                         G

e----------3---------3--------------3----------3-------
B------1---------1--------------0----------0-----------
G----2---1-----2---2----------0---0------0----0--------
D--2---------2-------------0-----------0---------------
A------------------------------------------------------
E------------------------------------------------------


Distorsión

F5              C5       G5
Quizás por que nunca entendimos

     F5                      C5              G5
La relación que existe entre libertad y soledad


CORO:

D5              F5          C5
La historia detrás de la canción

             G5                     D5
Habla de un tiempo en que cuerpo y alma

     F5               C5       G5
No bastaba entre los dos?La canción solo dice Adiós


Ahora veo mis manos vacías detrás de la cortina

Exigiendo darle vida


F5                C5      G5                      F5
Buscando una explicació..oon para una canción de  Amor

        C5                      G5
A la gaviota que a otro cielo voló


Am             G                 C
Después de un tiempo uno va aprendiendo

Am                            G       F
La sutil diferencia entre apretar una mano

        G
O encadenar un alma

Am           G                     C
Aceptar tus derrotas con la cabeza alta

       G         Am     G     F  C
Y los ojos bien abiertoooooooos


A5            B5                 C5
A mirar desde lejos de pie y sin miedo

  D5         A5          B5               C5
El vuelo sereno de la gaviota que a otro cielo

  D5    A5   B5   C5  D5  A5   B5 C5
Volooooooo??  ohohoh     uhuhuhuh


D5              F5          C5
La historia detrás de la canción

             G5                     D5
Habla de un tiempo en que cuerpo y alma

     F5               C5
No bastaba entre los dos?


B5              F5          C5
La historia detrás de la canción

             G5                     B5
Habla de un tiempo en que cuerpo y alma

     F5               C5       G5
No bastaba entre los dos?La canción solo dice Adiós


Cualquier comentario o sugerencia me escriben al mail Gracias
¡!!!Que Viva Ecuador!!!!!!
Suggest correction
Creating personal tab
Creating personal tab
You can edit any tab online and save it as your Personal.

You can edit, replace or remove any tab part or add personal notes – all changes will be seen only by you.

Personal tabs can be accessed anytime from any device, even offline.
Learn more »
Give kudos to tab author, rate the tab!
1 2 3 4 5
comments
print report bad tab
guest
Wanna post a correction for this tab? Suggest correction