Oops, an error
Loading. Please wait.

Hijo Mío Cuando Crezcas tab

55 views 1 this week
no commentswrite comment
1 2 3 4 5
3 more votes to show rating
add to favorites
×
Save as Personal and add changes to this tab that will be seen only by you. Learn more ›
×
You can save this tab as Personal to edit and correct it or add notes. All changes will be seen only by you. Learn more »
launch autoscroll
font size
0
reset
how to read this tab
guitar tuner
edit
Autoscroll
slow
fast
+/-
esc
set tempo
stop
6 ---------------------------- ------------------------------------
5 ---------------------------- ------------------------------------
4 ---------------------7-6-7-6 -------------------------12-11-12-11
3 -------------6-4---4-------- ---------------11-9----9------------
2 -----5-4---4-----5---------- ------10-9---9------10--------------
1 -7-4-----4------------------ -12-9------9------------------------


6 ------------------------ ------------------------
5 ------------------------ ------------------------
4 ------------------------ ------------------------
3 ---------------6---4---2 ---------------4---2---1
2 -----------7-5---5---5-- -----------5-4---5---0--
1 -5-7-8-9-5-------------- -4-5-6-7-4--------------


6 ------------------------------------------------
5 ------------------------------------------------
4 ------------------------------------------------
3 -2-------2-------4-------4-------1-------1------
2 ---2---2---2---2---4---4---4---4---0---0---0---0
1 -----5-------5-------7-------7-------4-------4--


6 ------------------------------------------------
5 ------------------------------------------------
4 ------------------------------------------------
3 -4-------4-------2-------2-------4-------4------
2 ---4---4---4---4---2---2---2---2---4---4---4---4
1 -----7-------7-------5-------5-------7-------7--


6 ------ ------------------------
5 ------ ------------------------
4 ------ ------------------------
3 ------ -------------6-4---2---1
2 ------ ------12-9-5-----5---0--
1 -11-12 -12-9-------------------


     E           B7            C#m
Hijo mio cuando crezcas y seas hombre,

G#m                 F#m                       B7
un gran hombre y la vida abra sus causes para ti.

       E              B7          C#m
Cuando sientas que tu alma resplandece,

G#m                 F#m                      B7
con la luz de mil ensueños de un insólito cenit.

                   E
No te llenes de ilusiones,

                 A            B7           E   B7
ni cavida a las pasiones determines en tu ser.

                      E
Puede ser que te impresione,

                 A              B7        E   B7
mas desecha las presiones de su mágico poder.
____________________________________________________

CORO
                     E
Por que el corazón te engaña,

                  A           B7             E    B7
y la muerte su guadaña va blandiendo sin piedad.

                  E
Y cuando la red apresa,

                    A             B7          E
se hace nula la esperanza de obtener la libertad.

_____________________________________________________
     E          B7             C#m
Hijo mio mis canciones llevan huellas,

G#m                     F#m                        B7
huellas negras, tristes huellas que en la vida recogí.

      E           B7          C#m
Y que pongo en tu mano como estrella,

G#m                F#m                     B7
que iluminen tu sendero y den luz a tu existir.

                          E
Por que  aquellas flores bellas,

                     A               B7        E    B7
del jardín de mis ensueños en que mi alma sumergí.

                    E
Se volvieron flores negras,

                     A              B7        E    B7
dardos crueles que atormentan día a día tu vivir.
_____________________________________________________

CORO
                     E
Por que el corazón te engaña,

                  A           B7             E    B7
y la muerte su guadaña va blandiendo sin piedad.

                  E
Y cuando la red apresa,

                    A             B7          E
se hace nula la esperanza de obtener la libertad.

            
            
Suggest correction
Creating personal tab
Creating personal tab
You can edit any tab online and save it as your Personal.

You can edit, replace or remove any tab part or add personal notes – all changes will be seen only by you.

Personal tabs can be accessed anytime from any device, even offline.
Learn more »
Give kudos to tab author, rate the tab!
1 2 3 4 5
comments
print report bad tab
guest
Wanna post a correction for this tab? Suggest correction