Oops, an error
Loading. Please wait.

Jesús Es Mi Guía tab

version 1
version 1

Whole song

81 views 1 this week
no commentswrite comment
1 2 3 4 5
3 more votes to show rating
add to favorites
×
Save as Personal and add changes to this tab that will be seen only by you. Learn more ›
×
You can save this tab as Personal to edit and correct it or add notes. All changes will be seen only by you. Learn more »
launch autoscroll
font size
0
reset
how to read this tab
guitar tuner
edit
Autoscroll
slow
fast
+/-
esc
set tempo
stop
Bueno hermanos y amigos les saluda esteban Toloza aquí
les dejo la intro de la alabanza ?Jesús es mi guía? de
los voceros de Cristo.
Bueno la alabanza está en la Escala de F# (mayor)
Lo que lleva la intro es que este es bien movida, y lo que se
toma en cuenta es la escala mayor de F#, C# y la de B para poder
hacer la intro.

El acorde en que comienza es F# mayor.

El orden de las cuerdas es el siguiente
e: es la 1ra cuerda.
E: es LA 6a cuerda.


e|-11-9h11-9--------------5-6--6-9-9-9-9-7-11--7-------------
B|-----------11------6-7-9----7---------------9---9----------
G|-------------11-6-8--------6------------------10---10------
D|-------------------------------------------------11--------
A|-----------------------------------------------------11----
E|-----------------------------------------------------------


e|-13-11h13-11-----------------------4-7-7-7-7-6-9--6---------
B|-------------12------------7-8-9--6--------------7--7-------
G|---------------13-10---8-10------6-----------------6--6-----
D|---------------------11------------------------------8------
A|-------------------------------------------------------9----
E|------------------------------------------------------------


e|-11-9h11-9--------------5-6---6--16-14h16-14-------------------10-11-
B|-----------11------6-7-9---5-7---------------16--------11-12-14------
G|-------------11-6-8----------------------------16-11-13--------------
D|---------------------------------------------------------------------
A|---------------------------------------------------------------------
E|---------------------------------------------------------------------


e|-16-14h16-14----------13--13-14-16-13--------------------------5-6-
B|-------------14-16--16---------------14-12----------------6-7-9----
G|------------------15----15----------------13-10--------6-8---------
D|-----------------------------------------------11-9-8--------------
A|-------------------------------------------------------------------
E|-------------------------------------------------------------------

h= hammer

Bueno hermanos aquí está la intro por si alguna duda
solo me escriben a mi correo jetv_@
Saludes y bendiciones al ministerio de Alabanza Rey de Reyes
de La Paz-El Salvador.
Suggest correction
Creating personal tab
Creating personal tab
You can edit any tab online and save it as your Personal.

You can edit, replace or remove any tab part or add personal notes – all changes will be seen only by you.

Personal tabs can be accessed anytime from any device, even offline.
Learn more »
Give kudos to tab author, rate the tab!
1 2 3 4 5
comments
print report bad tab
guest
Wanna post a correction for this tab? Suggest correction