Oops, an error
Loading. Please wait.

Jesús Es Mi Guía tab

version 2
version 2

Whole song

33 views 3 this week
no commentswrite comment
1 2 3 4 5
3 more votes to show rating
add to favorites
×
Save as Personal and add changes to this tab that will be seen only by you. Learn more ›
×
You can save this tab as Personal to edit and correct it or add notes. All changes will be seen only by you. Learn more »
launch autoscroll
font size
0
reset
how to read this tab
guitar tuner
edit
Autoscroll
slow
fast
+/-
esc
set tempo
stop
las cuerdas están enumeradas desde la mas aguda a la mas grave

6:-E - A:La mas Grave
5:-A - E
4:-D - C
3:-G - G
2:-B - D
1:-e - a:La mas aguda

El Requinto se afina en "A"


En este cantico el requinto y la guitarra
llevan capo en el "1er" traste
                     lee la nota que esta al final.

Introducción:
Esta introducción la dividí en 5 partes para que cueste menos
aprender a tocarla.
(LUEGO SE UNEN LAS 5 PARTES Y LISTO ESTA TODA LA INTRO)

                       (Primera parte)

6-|---------------------------------------------------------|
5-|---------------------------------------------------------|
4-|---------------------------------------------------5---3-|
3-|-------------0-2-4-----------0------------------4----4---|
2-|-----------1-------1-3-4---1-----------------3----3------|
1-|-5-3h5p3-0---------------0-----0-3-3-3-3-1-5---1---------|

                          (Segunda parte)

6-|----------------------------------------------------------|
5-|--------------------------------------------------------3-|
4-|----------------------------------------------------2-----|
3-|---------------0-2---------0--------------------0-----0---|
2-|-----------3-0-----0-1-2-3---0-3-------------1-----1------|
1-|-7-5h7p5-1-----------------------1-1-1-1-0-3---0----------|

            (Tercera parte)

6-|---------------------------------|
5-|---------------------------------|
4-|---------------------------------|
3-|-------------0-2-4-----------3---|
2-|-----------1-------1-3-4---1-----|
1-|-5-3h5p3-0---------------0-----0-|

         (Cuarta parte)

6-|-----------------------------|
5-|-----------------------------|
4-|-----------------------------|
3-|---------------5-7-----------|
2-|-------------6-----5-6-8-----|
1-|-10-8h10p8-5-------------4-5-|

                           (Quinta parte)

6-|----------------------------------------------------------------|
5-|-----------------------------------------10-8-7-----------------|
4-|---------------------------------------9------------------------|
3-|----------------------------------10-7----------0-2-4-----------|
2-|--------------------------------8---------------------1-3-4-4s5-|
1-|-10-8h10p8-3-5-0-5-7-0-7-8-10-7---------------------------------|


       F                   C7
Oh, Señor si el temor me domina
                          F
Y La Duda Me Quiere Alcanzar
              F7       Bb
De Tu Mano Potente y divina
        F       C7            F
Bien seguro mi Dios quiero andar

       C                    F
Débil Soy, Débil Soy, Cada Día
         C                   F
Como el tamo ante el viento voraz
                F7        Bb
Oh, Jesús se mi luz y mi guía
        F         C7     F
Que en cielo yo quiero morar


(SE REPITE TODA LA INTRODUCCIÓN)

      F                   C7
Oh, Señor este mundo y su vida
                       F
De pecado yo quiero dejar
                 F7     Bb
Y entregarte mi alma rendida
      F       C7       F
Para solo tu nombre adorar

       C                      F
Mas el mal, mas el mal por la vida
        C                 F
Cual gigante me quiere acabar
                F7        Bb
Pon Señor tu poder en mi vida
     F         C7            F
Y victoria tendré hasta el final.

                     (final)
                              C                  F
6-|------------------------------------------------|
5-|-----------------------------------------10-8-7-|
4-|---------------------------------------9--------|
3-|----------------------------------10-7----------|
2-|--------------------------------8---------------|
1-|-10-8h10p8-3-5-0-5-7-0-7-8-10-7-----------------|


Nota:
el tono original esta en un sostenido(#)
por eso utilizamos el capo en el primer traste.
En la guitarra el capo es opcional.
Con capo (F,C,C7 y Bb)
Sin capo (F#,C#,C#7 y B)
En el requinto se acompaña: (C,G,G7 y F)

La introducción esta exelente.

bueno hermanos este es todo el himno espero les sirva
y les sea de mucha bendición.
voten por este hermoso cantico

QUE DIOS LES BENDIGA

pueden pedirme cánticos en la siguiente dirección:

Facebook: wilber12091992@
  E-mail: wilber12091992@
Suggest correction
Creating personal tab
Creating personal tab
You can edit any tab online and save it as your Personal.

You can edit, replace or remove any tab part or add personal notes – all changes will be seen only by you.

Personal tabs can be accessed anytime from any device, even offline.
Learn more »
Give kudos to tab author, rate the tab!
1 2 3 4 5
comments
print report bad tab
guest
Wanna post a correction for this tab? Suggest correction