Oops, an error
Loading. Please wait.

Mi Triunfo Con Jesús chords

111 views 3 this week
no commentswrite comment
1 2 3 4 5
3 more votes to show rating
add to favorites
×
Save as Personal and add changes to this tab that will be seen only by you. Learn more ›
×
You can save this tab as Personal to edit and correct it or add notes. All changes will be seen only by you. Learn more »
launch autoscroll
font size
0
reset
transpose
0
reset
simplify chords
display chords
guitar tuner
edit
Autoscroll
slow
fast
+/-
esc
set tempo
stop
Strumming
There is no strumming pattern for this song yet. and get +5 IQ
MI TRIUNFO CON Jesús
2/4
Tiempo:93
INTRO
B77/G7/Csus9/F /b7(5dis)/E7/Gm7/A7/
B77/G7/Csus9/F /b7(5dis)/E7/Am/Am/Am/Am/

I ESTROFA
Am         Bdim  Am
DIFICIL ES SEÑOR JESÚS
                B7(5dis)      E7
VENCER LAS LUCHAS Y LA TENTACIÓN
         E7         Dm7   E7
SIN TU PODER ETERNO DIOS
      B7(5dis)  E7            Am   Bdim
EL ENEMIGO      TIENE LA OCACIÓN
         Am   Bdim       C6
NO DEJES PUES  OH BUEN SEÑOR
               A7                  Dm7
QUE ANDE EN EL MUNDO SIN TU BENDICIÓN
            Bbsus9   E7       Am
QUE ES PARA MÍ       TU GALARDÓN
           Bdim              Gm7   A7
Y ENORME ESCUDO DE MI SALVACIÓN
            Dm7  E7       Am
QUE ES PARA MÍ   TU GALARDÓN
           Bdim              Am
Y ENORME ESCUDO DE MI SALVACIÓN
3 compases más en Am
CORO
          Dm7  G7           Csus9  F
QUIERO VIVIR   POR SIEMPRE ALLA
          B7(5dis)   E7     Gm7  A7
DONDE TU AMOR          NO ACABARA
          Dm7  G7       9sus
DONDE TU LUZ   SIEMPRE SERA
          Gb    G11       E7
PARA LOS SALVOS LA FELICIDAD

ESTRIBILLO
         Am  Bdim        C6
POR ESO HOY   OH BUEN SEÑOR
          A7              Dm7
QUIERO DECIRTE CON EL CORAZÓN
           Bbsus9   E7            Am
QUÉ DEBIL SOY        Y ANSIOSO ESTOY
         Bdim              Gm  A7
DE SER AYADO FIEL EN TU PERDÓN
          Dm7  E7          Am
QUÉ DEBIL SOY   Y ANIOSO ESTOY
        Bdim                Am
DE SER AYADO FIEL EN TU PERDÓN

SE REPITE EL CORO Y ESTRIBILLO DE IGUAL MANERA
QUE AL PRINCIPIO


Acordes de la canción
   Am     Dm7     G7    Csus9    F    B7(5dis)
|---------|---------|----1----|---------|----1----|---------|
|----1----|----6----|----0----|----3----|----1----|----3----|
|----3----|----5----|----0----|----0----|----2----|----2----|
|----3----|----3----|----0----|----2----|----3----|----3----|
|----0----|----5----|----2----|----3----|----3----|----2----|
|---------|---------|----3----|---------|----1----|---------|

   E7     Gm7     A7     Bdim  Bbsus9    Gb
|----0----|---------|----0----|---------|----0-----|----2----|
|----3----|----3----|----2----|----3----|----1-----|----2----|
|----1----|----3----|----0----|----1----|----1-----|----3----|
|----2----|----3----|----2----|----3----|----3-----|----4----|
|----2----|---------|----0----|----2----|----1-----|----4----|
|----0----|----3----|---------|---------|----------|----2----|

   G11
|---------|
|----1----|
|----2----|
|----3----|
|---------|
|----3----|

Esto es lo que he podido escribir hasta el momento, luego
escribo el punteo. Cualquier error me disculpan pero no
conozco mucho
este estilo de música.
Dios les bendiga.
sologuitarra_22@
Suggest correction
Creating personal tab
Creating personal tab
You can edit any tab online and save it as your Personal.

You can edit, replace or remove any tab part or add personal notes – all changes will be seen only by you.

Personal tabs can be accessed anytime from any device, even offline.
Learn more »
Give kudos to tab author, rate the tab!
1 2 3 4 5
comments
print report bad tab
guest
Wanna post a correction for this tab? Suggest correction