Oops, an error
Loading. Please wait.

Así Lo Es tab

14 views 1 this week
no commentswrite comment
1 2 3 4 5
3 more votes to show rating
add to favorites
×
Save as Personal and add changes to this tab that will be seen only by you. Learn more ›
×
You can save this tab as Personal to edit and correct it or add notes. All changes will be seen only by you. Learn more »
launch autoscroll
font size
0
reset
how to read this tab
guitar tuner
edit
Autoscroll
slow
fast
+/-
esc
set tempo
stop
Intro

  G           Bm        Am           C
--3-----2----------------3-----2-----------------
----0-0---3-0-3/5-5--------0-0---3-0-3/5-5-------
-------------------------------------------------
-------------------------------------------------
-------------------------------------------------
-------------------------------------------------

  G           Bm        Am           C
--3-----2----------------3-----2-----------------
----0-0---3-0-3/5-5--------0-0---3-0-3/5~--------
-------------------------------------------------
-------------------------------------------------
-------------------------------------------------
-------------------------------------------------

Verso
    G    Bm  Am     C
Y así lo es, una y otra vez
    G    Bm     Am         C
Sin entender lo que va a suceder
    G    Bm      Am           C
Y así lo es, sin nada que explicarte
   G     Bm      Am          C
Y tú también sin nada que ofrecer

Coro
Am        Bm                 G
 Hay veces que quisiera arrancar tu cuerpo de mi mente
Am        Bm               G
 Hay veces que quisiera morirme en tu piel
Am        Bm                  G
 No entiendo si el tiempo nos va matando lentamente
Am        Bm               G
 Hay veces que quisiera morir gritandote

  G           Bm        Am           C
--3-----2----------------3-----2-----------------
----0-0---3-0-3/5-5--------0-0---3-0-3/5-5-------
-------------------------------------------------
-------------------------------------------------
-------------------------------------------------
-------------------------------------------------

Verso
    G    Bm       Am      C
Y así tal vez volvemos a perder
    G    Bm        Am          C
Fue por creer que todo va a estar bien
    G    Bm      Am           C
Y así lo es, sin nada que explicarte
   G     Bm      Am          C
Y tú también sin nada que ofrecer

Coro
Am        Bm                 G
 Hay veces que quisiera arrancar tu cuerpo de mi mente
Am        Bm               G
 Hay veces que quisiera morirme en tu piel
Am         Bm                 G
 No entiendo si el tiempo nos va matando lentamente
Am        Bm               G
 Hay veces que quisiera morir gritandote

Solo

---------------------------------------------------------------
-3/5-3--0--3--------------------3/5-3-0------------------------
---------------2-4-4-2-4-2-2-0----------2-4---4-4-4-4/2--------
---------------------------------------------------------------
---------------------------------------------------------------
---------------------------------------------------------------

---------------------------------------------------------------
-3/5-3--0--3--------------------3/5-3-0------------------------
---------------2-4-4-2-4-2-2-0----------2-4---5-4-2-2-2-2-2-2-2
---------------------------------------------------------------
---------------------------------------------------------------
---------------------------------------------------------------

Coro
Am        Bm                 G
 Hay veces que quisiera arrancar tu cuerpo de mi mente
Am        Bm               G
 Hay veces que quisiera morirme en tu piel
Am         Bm                 G
 No entiendo si el tiempo nos va matando lentamente
Am        Bm               G
 Hay veces que quisiera morir gritandote


  G           Bm        Am           C
--3-----2----------------3-----2-----------------
----0-0---3-0-3/5-5--------0-0---3-0-3/5-5-------
-------------------------------------------------
-------------------------------------------------
-------------------------------------------------
-------------------------------------------------

  G           Bm        Am           C
--3-----2----------------3-----2-----------------
----0-0---3-0-3/5-5--------0-0---3-0-3/5-5~------
-------------------------------------------------
-------------------------------------------------
-------------------------------------------------
-------------------------------------------------

            
            
Suggest correction
Creating personal tab
Creating personal tab
You can edit any tab online and save it as your Personal.

You can edit, replace or remove any tab part or add personal notes – all changes will be seen only by you.

Personal tabs can be accessed anytime from any device, even offline.
Learn more »
Give kudos to tab author, rate the tab!
1 2 3 4 5
comments
print report bad tab
guest
Wanna post a correction for this tab? Suggest correction