Oops, an error
Loading. Please wait.

Desaparece tab

44 views 1 this week
no commentswrite comment
1 2 3 4 5
3 more votes to show rating
add to favorites
×
Save as Personal and add changes to this tab that will be seen only by you. Learn more ›
×
You can save this tab as Personal to edit and correct it or add notes. All changes will be seen only by you. Learn more »
launch autoscroll
font size
0
reset
how to read this tab
guitar tuner
edit
Autoscroll
slow
fast
+/-
esc
set tempo
stop
les dejo mi primer colaboracion espero les sirva y
este correcta el riff se toca como intro y durante
la cancion escuchen la rola de preferencia.

riff x3

guitarra
1---0-2---0---------0-
2-0-----0----------0--
3-----------2-2-1-----
4---------------------
5---------------------
6---------------------

acordes:
   654321 (# cuerdas)
E  022000
Ea 079977
B  024422 o
B  799777
C# 046644
D  057755
A  577555
G# 466444

riff  E              B       C#
Y no ves que es lo que esta mal
   B      E      B      C#  B
Estar contigo no es normal
      E              B         C#
Y no ves que es lo que va a pasar
   B      E      B       C#  B
Estar contigo me va a matar

pre-coro
 Ea        D         C#    B
Hoy me olvide de tu nombre
 A       G#      B
Hoy termino una noche
 Ea        D         C#  B
Hoy creo que no se acaba
 A          G#      B
Hoy se que tu me vacias

coro
 Ea  B
Hoy Hoy
C#                B
No quiero ver tu sombra
      Ea   B      C#    B
No quiero ver tus ojos cerca
 Ea  B       C#
Hoy hoy no quiero
 B      Ea     B      C#   B
Desapareece de mis visiones


riff      riff
Ea B C# B Ea B C# B

se repiten las 2 primeras lineas pero con el puro bajeo
y lo demas con acordes

bajeo
1-----------------------
2-----------------------
3-----2-2-4-4-4-0-2-2-2-
4-0-0-------------------

      E              B         C#
Y no ves que es lo que va a pasar
   B      E      B       C#  B
Estar contigo me va a matar

se repite el pre coro y el coro igual

sigue el requinto
mientras se toca
A G# B G# A E
A G# B G# A G# B

1---------------------------------------------------------------------
2---------------10-12-10-------------------------------------10-12-10-
3-----------9-8--------------------9-8-9-11-9------------9-8----------
4-7-6-7-9-7--------------7-6-7-9-7-------------7-6-7-9-7--------------
5---------------------------------------------------------------------
6---------------------------------------------------------------------

1----------------------------------------
2---------------9---7-9---7-9---7-9---7--
3-----------9-8---9-----9-----9-----9---9
4-7-6-7-9-7------------------------------
5----------------------------------------
6----------------------------------------


por ultimo se toca 2 veces el coro
y al final el acorde es Ea
__________________________________________
dudas y comentarios wickedradical@
les mando un saludo y un abraso a mis amigos del alma Francisco,
Ismael, Rafael, Josue, Nancy, Jesy, Daniela, Gaby, Sonia y
a toda la raza de la Prepa 7 a al Marre al Maniako Alicia
Perla Eliasid Angel Fany y toda la rasa del colli sitio SALUD!!

            
            
Suggest correction
Creating personal tab
Creating personal tab
You can edit any tab online and save it as your Personal.

You can edit, replace or remove any tab part or add personal notes – all changes will be seen only by you.

Personal tabs can be accessed anytime from any device, even offline.
Learn more »
Give kudos to tab author, rate the tab!
1 2 3 4 5
comments
print report bad tab
guest
Wanna post a correction for this tab? Suggest correction