Oops, an error
Loading. Please wait.

Flor Primeveral chords

17 views 1 this week
no commentswrite comment
1 2 3 4 5
3 more votes to show rating
add to favorites
×
Save as Personal and add changes to this tab that will be seen only by you. Learn more ›
×
You can save this tab as Personal to edit and correct it or add notes. All changes will be seen only by you. Learn more »
launch autoscroll
font size
0
reset
transpose
0
reset
display chords
guitar tuner
edit
Autoscroll
slow
fast
+/-
esc
set tempo
stop
Strumming
There is no strumming pattern for this song yet. and get +5 IQ
Riff 1

--------------------------------2---------------
--------------------------------2---------------
------4-------------------------4---------------
---------3---------3------------4---------------
------------5---------4----2----4---------------
--------------------------------2--------------- Se tocar 6 veces 

(aquí empieza la guitarra con este riff, pero la pueden 
 tocar tan bien así como se la puse, si la quieren tocar
 como en el disco guíense con el F#, cada vez que esta
 aparece en la tab vuelve empezar el riff, esto solo si
 no la quieren tocar con pisada, original mente en el 
 disco no empieza con pisada)  


F#   B   F#         B
  Sale  vestida de mar

F#  B   F#           B 
Ganas   de echar a volar

F#       
En mi cabeza tengo arena
 
 B
y yo quiero gritar

 A
Brilla tu flor primaveral


 Coro

F#
Salgo Vestido de mar y ganas de volar

F#
Nada es igual que ver la noche terminar

B  riff


F#  B   F#              B    
Viene  envuelta en cristal

F# B    F#              B
Pasa   A A orilla del mar

F#
En mi cabeza tengo arena no me deja pensar

A
Brilla tu flor primaveral


Coro

F#
Salgo Vestido de mar y ganas de volar

F#
Nada es igual que ver la noche terminar

F#
Salgo Vestido de mar y ganas de volar

F#
Nada es igual que ver la noche terminar

Riff 2

---------------------------------------------------------------------
---------------------------------------------------------------------
4---4---4---4---4---4----4---4---4-------4---4---4-------4---4---4---
4---3---4---3---4---3----3---4---6---6---3---4---6---6---3---4---6---6
-------------------------------------5---------------5---------------5
----------------------------------------------------------------------
este riff se toca 2 veces


riff    F#  A   G#m   G   F#


Coro

F#
Salgo Vestido de mar y ganas de volar

F#
Nada es igual que ver la noche terminar

F#
Salgo Vestido de mar y ganas de volar

F#
Nada es igual que ver la noche terminar.

F#


Dudas o comentarios con Samuel a: oasisamuel@
Suggest correction
Creating personal tab
Creating personal tab
You can edit any tab online and save it as your Personal.

You can edit, replace or remove any tab part or add personal notes – all changes will be seen only by you.

Personal tabs can be accessed anytime from any device, even offline.
Learn more »
Give kudos to tab author, rate the tab!
1 2 3 4 5
comments
print report bad tab
guest
Wanna post a correction for this tab? Suggest correction