Oops, an error
Loading. Please wait.

Invencible tab

11 views 1 this week
no commentswrite comment
1 2 3 4 5
2 more votes to show rating
add to favorites
×
Save as Personal and add changes to this tab that will be seen only by you. Learn more ›
×
You can save this tab as Personal to edit and correct it or add notes. All changes will be seen only by you. Learn more »
launch autoscroll
font size
0
reset
how to read this tab
guitar tuner
edit
Autoscroll
slow
fast
+/-
esc
set tempo
stop
Db      x 4 6 6 6 4
B      x 2 4 4 4 2
A      x 0 2 2 2 0
Am      x 0 2 2 1 0
Asus4      x 0 2 2 3 0
E      1 2 2 1 0 0
Amaj7      x 0 2 1 2 0


intro: Db B (x2)

Db      B    Db        B
  Cómo estas,  cuánto tiempo
  A                              Am          Asus4     E Amaj7   E Amaj7  (*)
  recuerdo que contigo siempre tuve lo que quise sin dudar
Db       B    Db        B
  dónde estas,  qué ha pasado 
  A                        Am            Asus4            E Amaj7  (*)
  juraba que tú y yo seríamos lo mismo siempre hasta el final


(*) Hay una transición para pasar del acorde E al Amaj7 que se toca más o menos asi ...
/ = slide down
     E               Amaj7       E               Amaj7
e----0---0-0-0-0---0-0-0-0-0-0-0-0---0-0-0-0---0-0-0-0-0-0-0---------
B----0---0-0-0-0---0-2-2-2-2-2-2-0---0-0-0-0---0-2-2-2-2-2-2---------
G----1---1-1-1-1---0-1-1-1-1-1-1-1---1-1-1-1---0-1-1-1-1-1-1---------
D----2---2-2-2-2---x-2-2-2-2-2-2-2---2-2-2-2---x-2-2-2-2-2-2---------
A----2---2-2-2-2-/-3-0-0-0-0-0-0-2---2-2-2-2-/-3-0-0-0-0-0-0---------
E----0---0-0-0-0---x-x-x-x-x-x-x-0---0-0-0-0---x-x-x-x-x-x-x---------


            .:: coro ::.


  E   A      E       Am        E    Am       D
  Eramos uno, fuimos más juntos era mas por tí
  E   A      E       Am        E    Am       D
  Eramos uno, fuimos más juntos era mas por tí


                  .:: riff ::.

  E           Asus4           E           Asus4
e-----------------------------------------------------------------------||
B-0---0-0-0-2-4-4---4-4-4-4---0---0-0-0-2-4-4---4-4-4-4-----------------||
G-----------------------------------------------------------------------||
D-----------------------------------------------------------------------||
A-----------------------------------------------------------------------||
E-----------------------------------------------------------------------||
  Amaj7       Am              Amaj7       Am                             |
e-2---2-2-2-4-----------------2---2-2-2-4-------------------------------||
B-------------2-2---2-2-2-2---------------2-2---2-2-2-2-----------------||
G-----------------------------------------------------------------------||
D-----------------------------------------------------------------------||
A-----------------------------------------------------------------------||
E-----------------------------------------------------------------------||> se repite de nuevo


  E           Asus4           E           Asus4
e-0---0-0-0-2-4-4---4-4-4-4---0---0-0-0-2-4-4---4-4-4-4-----------------|| 
B-----------------------------------------------------------------------||
G-----------------------------------------------------------------------||
D-----------------------------------------------------------------------||
A-----------------------------------------------------------------------||
E-----------------------------------------------------------------------||
  Amaj7        Am              Amaj7        Am                           |
e-7---7-7-7-12-9-9---9-9-9-9---7---7-7-7-12-9-9---9-9-9-9---------------||
B-----------------------------------------------------------------------||
G-----------------------------------------------------------------------||
D-----------------------------------------------------------------------||
A-----------------------------------------------------------------------||
E-----------------------------------------------------------------------||> se repite de nuevo

 
  A                              Am          Asus4      E
  Recuerdo que contigo siempre tuve lo que quise sin dudar


            .:: coro ::.


  E   A      E       Am        E    Am       D
  Eramos uno, fuimos más juntos era mas por tí
  E   A      E       Am        E    Am       D
  Eramos uno, fuimos más juntos era mas por tí
  E   Am     E    Am     E    Am    E
  eramos uno, eramos uno, eramos uno


=============================================================================================
Los acordes que están sobre los riffs, están acomodados para tocarse simultáneamente con la
pisada que marca el mismo riff y también marca cuándo cambias de acorde, se tocan sólo hasta
que se repite por segunda vez el riff y se oye chingón, pero si les late tocarla como en la
rola pues igual. También se pueden tocar los riffs durante toda la rola y con ambas guitarras
acústicas se oye poca madre.
Abuelo, Zanku, Paola chido brothers son la neta, de lo más real que he conocido ... ánimo!
Aclaraciones sugerencias icq:112899266
Suggest correction
Creating personal tab
Creating personal tab
You can edit any tab online and save it as your Personal.

You can edit, replace or remove any tab part or add personal notes – all changes will be seen only by you.

Personal tabs can be accessed anytime from any device, even offline.
Learn more »
Give kudos to tab author, rate the tab!
1 2 3 4 5
comments
print report bad tab
guest
Wanna post a correction for this tab? Suggest correction