Oops, an error
Loading. Please wait.

Morir Por Tí tab

version 1
version 1

Whole song

Interactive

44 views 1 this week
no commentswrite comment
1 2 3 4 5
3 more votes to show rating
add to favorites
×
Save as Personal and add changes to this tab that will be seen only by you. Learn more ›
×
You can save this tab as Personal to edit and correct it or add notes. All changes will be seen only by you. Learn more »
launch autoscroll
font size
0
reset
how to read this tab
guitar tuner
edit
Autoscroll
slow
fast
+/-
esc
set tempo
stop
esta cancion se la quiero dedicar al amor de mi vida
a la niña mas hermosa,dulce,tierna,maravillosa,unica,pura,
bella,fina,delicada,noble,a la niña mas hermosa del mundo
,te amo shak!!!!  siempre t amare mi princesita hrmosa...IsRa

Acordes

    A    B   G#   C#   F#
|-----------------------------|
|-----------------------------|
|--------4---------6----------|
|---7----4----6----6----4-----|
|---7----2----6----4----4-----|
|---5---------4---------2-----|


Parte 1

e|--------------------------------------------------
B|--------------------------------------------------
G|--------------------------------------------------
D|---6---6---6---4---4---4---2---2---2---2---2---2--
A|-4---4---4---2---2---2---0---0---0---0---0---0----
E|--------------------------------------------------

Parte 2

e|--------------------------------------------------
B|--------------------------------------------------
G|--------------------------------------------------
D|---2---2---2---4---4---4---6---6---6---6---6---6--
A|-0---0---0---2---2---2---4---4---4---4---4---4----
E|--------------------------------------------------

Arreglos

|----------------------------------|
|----------------------------------|
|--------9-----11-------14---------|
|----5/7---7/9----9/11-------------|
|----------------------------------|
|----------------------------------|


Intro 1 de la canción

e|----------------------------------------------------------------------
B|----------------------------------------------------------------------
G|----------------------------------------------------------------------
D|---6---6---4---4---2---2---2---2---2---2---4---4---6---6---6---6---6--
A|-4---4---2---2---0---0---0---0---0---0---2---2---4---4---4---4---4----
E|----------------------------------------------------------------------

Intro 2 de la canción

e|-------------------------------------------------------------
B|-------------------------------------------------------------
G|-------------------------------------------------------------
D|-----6-6-4-4--------4-4-2-2--------2-2-1-1-1-----2-2-1-1-----
A|-4-4---------4--2-2---------2--0-0-----------0-0---------0---
E|-------------------------------------------------------------


"inicia la cancion con el intro 1 y le sigue el intro 2"

Parte 1
Tu me Haces irme con las aves y puedo Volar

Parte 2
Tu me haces creer que en el cielo puedo caminar

Parte 1
Todo es natural tu lo haces real

Parte 2
como puedo guardar, tu aire en mis manos...

 A
Hoy puedo morir por ti,
B
hoy puedo vivir por ti,
G#
no quiero perderte
               C#
tu sabes que te amo (x2)


intro 2 de la cancion ( aqui solo se toca el intro 2)

(aquí la guitarra se queda totalmente callada)

Tu me haces pensar que la luna se puede tocar

Tu te haz convertido en el viento que no tiene fin

Todo es natural tu lo haces real (aqui se añade un arreglo)

como puedo guardar, dolor en mis manos...


A
Hoy puedo morir por ti,
B
hoy puedo vivir por ti,
G#
no quiero perderte
               C#
tu sabes que te amo (x2)


Parte 1
No quiero caminar, sin ti

Parte 2
No quiero volar sin ti


A
Hoy puedo morir por ti,
B
hoy puedo vivir por ti,
G#
no quiero perderte
               C#
tu sabes que te amo
A
Hoy puedo morir por ti,
F#
hoy puedo vivir por ti,
G#
no quiero perderte
               C#
tu sabes que te amo


intro 2 de la cancion

 y se finaliza con esos acordes


A                        B           C#
mi amor se lo dejo al tiempo como testigo?

            
            
Suggest correction
Creating personal tab
Creating personal tab
You can edit any tab online and save it as your Personal.

You can edit, replace or remove any tab part or add personal notes – all changes will be seen only by you.

Personal tabs can be accessed anytime from any device, even offline.
Learn more »
Give kudos to tab author, rate the tab!
1 2 3 4 5
comments
print report bad tab
guest
Wanna post a correction for this tab? Suggest correction