Oops, an error
Loading. Please wait.

Niño De Oro tab

41 views 1 this week
no commentswrite comment
1 2 3 4 5
3 more votes to show rating
add to favorites
×
Save as Personal and add changes to this tab that will be seen only by you. Learn more ›
×
You can save this tab as Personal to edit and correct it or add notes. All changes will be seen only by you. Learn more »
launch autoscroll
font size
0
reset
how to read this tab
guitar tuner
edit
Autoscroll
slow
fast
+/-
esc
set tempo
stop
NIÑO DE ORO---VOLOVAN


La siguiente rola es una de las mejores
Que he escuchado, dice  lo que en verdad
siento por la mujer que amo,pero ella no
lo sabe....... aun

a trabajar¡¡¡¡¡  ES NECESARIO SEGUIR LA
PISTA PARA NO PERDERSE, AUNQUE ES MUY
CLARA LA TABLATURA.


INTRO:

C#5-B5 (X2)
C#5-D#5-E5-F#5


VERSO:               (RAPIDO)

   -P.M-     -P.M-P.M-   -P.M-  -P.M-
e-------------------------------------
B-------------------------------------     EL RASGUEO AQUI
G-------------------------------------     ES DIFERENTE,
D---9999---8-888888888---------4-44444     CHEKENLO CON LA
A---7777---7-777777777----2222-2-22222     CANCION.
E-------------------------------------
     E5    E/5   E/5       B*   B5  B5


E5-E/5                     E5-E/5
YO ME IMAGINO CONTIGO,
                        B*-B5
Y ANDAR CAMINANDO
                        B*-B5
Y MI MANO EN TU MANO
                         E5
PERO NO ESTAS CONMIGO.


E/5                      E5-E/5
QUISIERA QUE ME VIERAS
                            B*-B5
QUISIERA QUE DESCUBRIERAS
                            B*-B5
QUE NO ME TENGAS MIEDO

YO NO SOY TU ENEMIGO.  -A5-


CORO
     C#5          B5                      A5
YO PUEDO SER TU FAVORITO EL MEJOR JUEGO,
     C#5       B5                       A5
TU NIÑO DE ORO TU ANILLO DE DIAMANTES,
   C#5          B5
PERO NO SOY YO SOLO SOY TU SERGUIDOR

              A5
Y TODO PORQUE TU NO ESTAS
 C#5               B5
SIEMPRE TE VAS NO ESTAS AQUÍ
            A5
YO SIN TI NO SOY IGUAL

  A7M*  A5 A7M*  B5
MI VIDA NO ES NORMAL.


C#5-B5 (X2) (PAUSA)

VERSO 2

E5-E/5                     E5-E/5
NO ME CONFORMO CON VERTE
                         B*-B5
RECIBIENDO TUS PREMIOS
                        B*-B5
MODELANDO TU ROPA
                       E5-E/5
REGALANDO MIL BESOS

                            E5-E/5
SIEMPRE SE HACERCAN CONTIGO
                         B*-B5
TODOS TE MIRAN DE CERCA
                      B*-B5
Y YO SIGO ESCONDIDO
                        A5
SIGO SOÑANDO CONTIGO

CORO:

YO PUEDO SER.......ETC.

SOLO

e---------------------|---------------------|---------------
B---------------------|---------------------|---------------
G-8-6---------------O-|--8-6--------------0-|--8-6----------
D-----9-6-9---6-8-9---|------9-6-9---6-8-9--|------9-6-9---6
A-----------9---------|------------9--------|------------9--
E---------------------|---------------------|---------------

e-------|--------------------------------------------------
B-------|--------------------------------------------------
G-----0-|-8-6----------------------------------------------
D-8-9---|-----9-6-9-6-4------------------------------------
A-------|---------------7-6-6/9-9-9-9-9-9-9-9-9-9-7-6-4-9-9
E-------|--------------------------------------------------

e---------------------------------------------------------
B---------------------------------------------------------
G---------------------------------------------------------
D---------------------------------------------------------
A-9-9-9-9-9-9-9-9-7-6-4-9-9-9-9-9-9-9-9-9-9-7-6-4-9-9-9-7-
E---------------------------------------------------------

e---------------------------------------|
B---------------------------------------|
G---------------------------------------|
D--------------------------2-22--2-6-66-|
A-7-7-6-6-6-4-4-4-2-2-1-1--0-00--0-4-44-|
E---------------------------------------|

CORO

OUTRO:

C#5-B5 (X2)

PAUSA

C#5-B5 (X2)
C#5-D#5-E5-F#5

ACORDES USADOS:

  C#5             B5              D#5           E5
e------I       e-------I       e------I      e-------I
B------I       B-------I       B------I      B-------I
G--6---I       G---4---I       G---8--I      G---9---I
D--6---I       D---4---I       D---8--I      D---9---I
A--4---I       A---2---I       A---6--I      A---7---I
E------I       E-------I       E------I      E-------I

   F#5            E/5             B*           B5
e------I       e-------I       e------I      e-------I
B------I       B-------I       B------I      B-------I
G---11-I       G-------I       G------I      G-------I
D---11-I       D---8---I       D------I      D---4---I
A---9--I       A---7---I       A--2---I      A---2---I
E------I       E-------I       E------I      E-------I

  A7M*
e------I
B------I
G------I
D------I
A---0--I
E---4--I


DEDICADO PARA TI QUE ERES EL AMOR DE MI VIDA,
MI INSPIRACION A SEGUIR TOCANDO
Y HACER TODO LO IMPOSIBLE POR TI. "MTP" te quiero -FAB

            
            
Suggest correction
Creating personal tab
Creating personal tab
You can edit any tab online and save it as your Personal.

You can edit, replace or remove any tab part or add personal notes – all changes will be seen only by you.

Personal tabs can be accessed anytime from any device, even offline.
Learn more »
Give kudos to tab author, rate the tab!
1 2 3 4 5
comments
print report bad tab
guest
Wanna post a correction for this tab? Suggest correction