Oops, an error
Loading. Please wait.

Ya No Hay Solución bass

by Vomito
81 views 1 this week
no commentswrite comment
1 2 3 4 5
3 more votes to show rating
add to favorites
×
Save as Personal and add changes to this tab that will be seen only by you. Learn more ›
×
You can save this tab as Personal to edit and correct it or add notes. All changes will be seen only by you. Learn more »
launch autoscroll
font size
0
reset
guitar tuner
edit
Autoscroll
slow
fast
+/-
esc
set tempo
stop
1|---------------------
2|---------------------
3|-9-9-7-7-3-3-5-5---X4
4|---------------------


1|---------------------
2|---------------------
3|-9-9-7-7-3-3-5-5-----
4|---------------------
Abre tus ojos y mira alrededor,

1|---------------------
2|---------------------
3|-3-3-3-3-5-5-5-5-----
4|---------------------
¿qué es lo que han hecho por tú salvación?,

1|---------------------
2|---------------------
3|-9-9-7-7-3-3-5-5-----
4|---------------------
llenan tu vida con sucia rutina,

1|---------------------
2|---------------------
3|-3-3-3-3-5-5-5-5-----
4|---------------------
dios, padre, patria y patrón.

1|---------------------
2|---------------------
3|-9-9-7-7-3-3-5-5-----
4|---------------------
Abre tus ojos y mira alrededor,

1|---------------------
2|---------------------
3|-3-3-3-3-5-5-5-5-----
4|---------------------
eres una ficha de un ordenador,

1|---------------------
2|---------------------
3|-9-9-7-7-3-3-5-5-----
4|---------------------
es tan fácil apretar un botón,

1|---------------------
2|---------------------
3|-3-3-3-3-5-5-5-5-----
4|---------------------
ya no hay solución.

1|---------------------
2|---------------------
3|-5-5-5-5-5-5-5-5-----
4|---------------------
¡Ya no hay solución!

1|------------------------
2|---------------------   |
3|-9-9-7-7-3-3-5-5-----   |
4|---------------------   |
                          X2
1|---------------------   |
2|---------------------   |
3|-3-3-3-3-5-5-5-5-----   |
4|------------------------


1|---------------------
2|---------------------
3|-9-9-7-7-3-3-5-5-----
4|---------------------
Abre tus ojos y mira alrededor,

1|---------------------
2|---------------------
3|-3-3-3-3-5-5-5-5-----
4|---------------------
¿qué es lo que han hecho por tú salvación?,

1|---------------------
2|---------------------
3|-9-9-7-7-3-3-5-5-----
4|---------------------
llenan tu vida con sucia rutina,

1|---------------------
2|---------------------
3|-3-3-3-3-5-5-5-5-----
4|---------------------
dios, padre, patria y patrón.

1|---------------------
2|---------------------
3|-9-9-7-7-3-3-5-5-----
4|---------------------
Abre tus ojos y mira alrededor,

1|---------------------
2|---------------------
3|-3-3-3-3-5-5-5-5-----
4|---------------------
eres una ficha de un ordenador,

1|---------------------
2|---------------------
3|-9-9-7-7-3-3-5-5-----
4|---------------------
es tan fácil apretar un botón,

1|---------------------
2|---------------------
3|-3-3-3-3-5-5-5-5-----
4|---------------------
ya no hay solución.

1|---------------------
2|---------------------
3|-5-5-5-5-5-5-5-5-----
4|---------------------
¡Ya no hay solución!

1|---------------------
2|---------------------
3|-9-9-7-7-3-3-5-5---X4
4|---------------------


1|---------------------
2|---------------------
3|-9-9-7-7-3-3-5-5---X7
4|---------------------
¡Ya no hay solución!

1|---------------------
2|---------------------
3|-9-9-7-7-3-3-5-5-----
4|---------------------
¡Ya no hay!

1|---------------------
2|---------------------
3|-5-5-5-5-5-5-5-5-----
4|---------------------


1|---------------------
2|---------------------
3|-5-5-5-5-5-5-5-5-----
4|---------------------
¡Ya no hay solución!


Es una canción muy simple, con escucharla una vez
seguro que la podreis tocar.
A ver si alguien se anima y manda más tabs de este
grupo que es la ostia.
Agur!

            
            
Suggest correction
Creating personal tab
Creating personal tab
You can edit any tab online and save it as your Personal.

You can edit, replace or remove any tab part or add personal notes – all changes will be seen only by you.

Personal tabs can be accessed anytime from any device, even offline.
Learn more »
Give kudos to tab author, rate the tab!
1 2 3 4 5
comments
print report bad tab
guest
Wanna post a correction for this tab? Suggest correction