Oops, an error
Loading. Please wait.

Que Fácil tab

26 views 1 this week
no commentswrite comment
1 2 3 4 5
3 more votes to show rating
add to favorites
×
Save as Personal and add changes to this tab that will be seen only by you. Learn more ›
×
You can save this tab as Personal to edit and correct it or add notes. All changes will be seen only by you. Learn more »
launch autoscroll
font size
0
reset
how to read this tab
guitar tuner
edit
Autoscroll
slow
fast
+/-
esc
set tempo
stop
RIFF 1
intro
1ª--------------------------------------------------------------------
2a-------------0-------------------0-------------------0--------------
3a--------0------0------------0------0------------0------0------------
4a------7---7------7--------7---7------7--------7---7------7--------7-
5a----5----------------5h-6----------------6h-7---------------7s-6----
6a--------------------------------------------------------------------

1a---------------------
2a--------0------------
3a---0------0----------
4a-----7------7--------
5a---------------6s-5?-
6a---------------------


Riff 2
1a-----------------------------------------------0---------
2a----------0------------------0---------------0---0-------
3a------0-----0-----------0------0-----------0-------0-----
4a----7---7-----7-------7---7------7-------5-----------5---
5a--5--------------5s-4---------------4s-3-----------------
6a---------------------------------------------------------

1a----------------------
2a----------------------
3a-----0-----0-----0?-0-
4a---5-----5-----5----5-
5a-3-----2-----3------3-
6a----------------------

Riff3
1a----------------------------
2a----------------------------
3a?3xxxxx-5xxxx?-6xxxxx?5xxxx-
4a?3xxxxx-5xxxx?-6xxxxx?5xxxx-
5a?2xxxxx-3xxxx?-4xxxxx?3xxxx-
6a----------------------------

Riff4
1a-------------------------------------
2a-------------------------------------
3a-------------------------------------
4a-3xxxx?-4xxxx--?5xxxx--?4xxxx--------
5a-3xxxx?-4xxxx--?5xxxx--?4xxxx--------
6a-1xxxx?-2xxxx--?3xxxx--?2xxxx--------

intro

Riff 1
Hoy desperte con ganas de ser algo cabron de ser como esos
weyes que dices que son punk me pare los pelos no voy a
trabajar nunca usare el cerebro sere como animal.

Riff 2
Ya ves que facil es ser punk, ya ves que facil es ser punk
Riff 3 esto va rasgueado
Ya ves que facil es ser punk(grito de tigre)


Riff4 (todo esto es rasgueado con las notas marcadas)
Are muchos desmadres no voy a respetar si culpan a otra
gente me vale me da igual quien ponga una anarquia la
invento para mi, todo lo tuyo es mio y lo mio para mi.

Ya ves que facil es ser punk, ya ves que facil es ser punk
Ya ves que facil es ser punk

No entiendo ideologías yo jalo por jalar entre este
movimiento no mas a reventar que caiga el movimiento que
caiga mas y mas  que prohiban las tocadas todo esto me
da igual.

Ya ves que facil es ser punk, ya ves que facil es ser punk
(Solo guitarra electrica)

Hoy desperte con ganas de ser algo cabron
de ser como esos weyes que dices que son punk
me pare los pelos no voy a trabajar
nunca usare el cerebro sere como animal.

Ya ves que facil es ser punk, ya ves que facil es ser punk
Ya ves que facil es ser punk(grito de tigre)
Ya ves que facil es ser un punk

Esta facil pero escuchen mejor
la cancion para que la entiendan.


DEDICADA AL BARRIO DE HUICALCO
EN TIZAYUCA HIDALGO.

            
            
Suggest correction
Creating personal tab
Creating personal tab
You can edit any tab online and save it as your Personal.

You can edit, replace or remove any tab part or add personal notes – all changes will be seen only by you.

Personal tabs can be accessed anytime from any device, even offline.
Learn more »
Give kudos to tab author, rate the tab!
1 2 3 4 5
comments
print report bad tab
guest
Wanna post a correction for this tab? Suggest correction