Oops, an error
Loading. Please wait.

Si Te Vas Me Mato Y Si No También tab

98 views 1 this week
no commentswrite comment
1 2 3 4 5
2 more votes to show rating
add to favorites
×
Save as Personal and add changes to this tab that will be seen only by you. Learn more ›
×
You can save this tab as Personal to edit and correct it or add notes. All changes will be seen only by you. Learn more »
launch autoscroll
font size
0
reset
how to read this tab
guitar tuner
edit
Autoscroll
slow
fast
+/-
esc
set tempo
stop
Guitarra Limpia.
(1)  Am
E |----------0-------3-----2-----0--------|
B |--------1---1---1---1-----1-----1------|
G |------2-------2-------2-----2-----2----|
D |----2----------------------------------|
A |--0------------------------------------|
E |---------------------------------------|

(2)  E            x2
E |--------------------|
B |----------0p3-3-----|
G |--------1-----------|
D |------2-------------|
A |----2---------------|
E |--0-----------------|

(3)   F            G       Am              2ª
E |------------------------------5--------|--5-------|
B |--------------------------------5------|--5-------|
G |--------2---------4---------5-----5----|--5-------|
D |------3---------5---------7---------7--|--7-------|
A |----3---------5---------7--------------|--7-------|
E |--1---------3---------5----------------|--5-------|

(4)      Elect. Gtr.
E |----------------------------------------------|
B |----------------------------------------------|
G |--2---2-2--2-2--2-2--2----5-5-5--7--3---------|
D |--2---2-2--2-2--2-2--2----5-5-5--7--3---------|
A |--0---0-0--0-0--0-0--0----3-3-3--5--1---------|
E |--------------------------3-3-3--5--1---------|

(5)
Coro (x2)      x3
E |---------------------|-------------------|
B |---------------------|-------------------|
G |---------------------|-------------------|
D |---7-7-7-7--5-5-5-5--|--7---5---7---5----|
A |---7-7-7-7--5-5-5-5--|--7---5---7---5----|
E |---5-5-5-5--3-3-3-3--|--5---3---5---3----|

(1)(1)(1)
(1) He estado tanto tiempo lejos tan lejos de ti
(2) Hoy estando separados 
(1) me acuerdo mas de ti recordando tu mirada y tu puro sonreír 
(2) tengo la mirada perdida 
(1) y no se a donde ir
(3)
(1) Necesito que regreses cuando se haya ido el sol 
(2) no me juzgues por mi imagen 
(1) tu no sabes como soy tu me ofendes por cabrón y es que nunca me entendiste
(2) estoy en una tormenta 
(1) es en la que tu me hundiste
(3) (sin la segunda parte)
(3) (sin la segunda parte)

(1) Yo quiero volverte a ver y escuchar tu voz muy cerca
(2) sin sentir la represión 
(1) que en tu casa nos acechan lo que digan los demás no me causa algún cuidado
(2) pero ahora e recordar 
(1) eso me aparto de tu lado

(3) (sin la segunda parte) Quiero que vuelvas conmigo
(3) (sin la segunda parte) Quiero que vuelvas conmigo
(3) (sin la segunda parte) Quiero que vuelvas conmigo
(3)

(4) Yo te quiero demostrar que a veces la apariencia falla
si llego a protestar no por eso siento nada 
yo no te puedo negar que me mires a la cara 
si eres como las demás eso me madrea el alma

(5) Coro 
tengo sentimientos tengo sentimientos tengo sentimientos 
aunque soy un punk
tengo sentimientos tengo sentimientos tengo sentimientos
aunque soy un punk

(4) Si no quieres regresar no voy a morir por eso 
yo pensé que me querías y era un falso sentimiento
ya te puedes carcajear de la forma en que me veo 
mas que (esta parte no entiendo lo que dice)
yo siempre seré sincero

(5) Coro 
tengo sentimientos tengo sentimientos tengo sentimientos 
aunque soy un punk
tengo sentimientos tengo sentimientos tengo sentimientos
aunque soy un punk


ESTA ES MI VERSION DE LA CANCION 
Cualquier corrección que Hubiese favor de contactarme a radamantominos@
Gracias.

            
            
Suggest correction
Creating personal tab
Creating personal tab
You can edit any tab online and save it as your Personal.

You can edit, replace or remove any tab part or add personal notes – all changes will be seen only by you.

Personal tabs can be accessed anytime from any device, even offline.
Learn more »
Give kudos to tab author, rate the tab!
1 2 3 4 5
comments
print report bad tab
guest
Wanna post a correction for this tab? Suggest correction