Oops, an error
Loading. Please wait.

Profecías tab

version 2
version 2

Whole song

by Vox Dei
49 views 3 this week
no commentswrite comment
1 2 3 4 5
3 more votes to show rating
add to favorites
×
Save as Personal and add changes to this tab that will be seen only by you. Learn more ›
×
You can save this tab as Personal to edit and correct it or add notes. All changes will be seen only by you. Learn more »
launch autoscroll
font size
0
reset
how to read this tab
guitar tuner
edit
Autoscroll
slow
fast
+/-
esc
set tempo
stop
Intro:

Am - Am/G - |Am/F# - Am/F E| x4

  Am         Am/G                  Am/F#     Am/F        E
e|-------------------------------|---------------------------|
B|--13--------12-----------------|-13--------10/12---13--12--|
G|-------------------------------|---------------------------|
D|-------------------------------|---------------------------|
A|-------------------------------|---------------------------|
E|-------------------------------|---------------------------|
  De SOL A SOL   LAbranDO tierra tendrás tu pan, todos los rios

  Am       Am/G                    Am/F#      Am/F        E
e|-------------------------------|---------------------------|
B|-13-------12-------------------|-13---------10/12---13--12-|
G|-------------------------------|---------------------------|
D|-------------------------------|---------------------------|
A|-------------------------------|---------------------------|
E|-------------------------------|---------------------------|
  van al mar pero este  nunca  se llenará      todos los rios

Am                  C
Siempre volverán a donde salieron
D                 F       E
para comenzar a correr de nuevo
Am                      C
lo que siempre fue lo mismo será
D                        F     E
Lo que siempre hicieron repetirán

Intermedio:

   D     Em         C     Bm      Em    C
e|-------0--0-0-0-|-------------|-------------|
B|-15^^^----------|-13^^^-12^^^-|-------13^^^-|
G|----------------|-------------|-------------|
D|----------------|-------------|-14^^^-------|
A|----------------|-------------|-------------|
E|----------------|-------------|-------------|

   Am    D       D       D
e|-------------|--------------|
B|-------15^^^-|-15^^-13-15^^-|
G|-14^^^-------|--------------|
D|-------------|--------------|
A|-------------|--------------|
E|-------------|--------------|

         Am          Am/G
e|----|--/17--15------15-15-15---------|
B|-10-|*----------17-------------17-15-|
G|----|--------------------------------|
D|----|--------------------------------|
A|----|*-------------------------------|
E|----|--------------------------------|

   Am/F#             Am/F                E
e|---------------------------------------------|
B|-----17-15-16^^--15----15^^-----------------*|
G|-17-----------------17-------17-16-17--14^^--|
D|---------------------------------------------|
A|--------------------------------------------*|
E|---------------------------------------------|


  Am         Am/G                  Am/F#     Am/F        E
e|-------------------------------|---------------------------|
B|--13--------12-----------------|-13--------10/12---13--12--|
G|-------------------------------|---------------------------|
D|-------------------------------|---------------------------|
A|-------------------------------|---------------------------|
E|-------------------------------|---------------------------|
  No olvidar   lo que ves ya se ha visto ya     talvés un día


  Am       Am/G                    Am/F#      Am/F        E
e|-------------------------------|---------------------------|
B|-13-------12-------------------|-13---------10/12---13--12-|
G|-------------------------------|---------------------------|
D|-------------------------------|---------------------------|
A|-------------------------------|---------------------------|
E|-------------------------------|---------------------------|
  lo sabrás   todo tiene un tiempo bajo el sol  por que habrá siempre

Am                  C
Tiempo de plantar y de cosechar
D                 F       E
tiempo de hablar también de callar
Am                      C
tiempo para guerra y tiempo de paz
D                        F     E
tiempo para tiempo y un rato mas

   D     Em         C     Bm      Em    C
e|-------0--0-0-0-|-------------|-------------|
B|-15^^^----------|-13^^^-12^^^-|-------13^^^-|
G|----------------|-------------|-------------|
D|----------------|-------------|-14^^^-------|
A|----------------|-------------|-------------|
E|----------------|-------------|-------------|

   Am    D       D       D
e|-------------|--------------|
B|-------15^^^-|-15^^-13-15^^-|
G|-14^^^-------|--------------|
D|-------------|--------------|
A|-------------|--------------|
E|-------------|--------------|


   Am                      Am/G
e|----17-15----15-------------17-15----15----------|
B|----------17----17-13-15----------17----17-13-15-|
G|-14----------------------14----------------------|
D|-------------------------------------------------|
A|-------------------------------------------------|
E|-------------------------------------------------|

   Am/F#                   Am/F           E
e|----17-15----15-------------17-15----15----------|
B|----------17----17-13-15----------17----17-13-15-|
G|-14----------------------14----------------------|
D|-------------------------------------------------|
A|-------------------------------------------------|
E|-------------------------------------------------|

   Am                      Am/G
e|-------------------------------------------------|
B|-------------------------------------------------|
G|-------------------------------------------------|
D|-------------------------------------------------|
A|-------------------------------------------------|
E|-------------------------------------------------|

   Am/F#                   Am/F           E
e|-------------------------------------------------|
B|-------------------------------------------------|
G|-------------------------------------------------|
D|-------------------------------------------------|
A|-------------------------------------------------|
E|-------------------------------------------------|

   Am       Am/G     Am/F#  Am/F  E
e|-----------------|--------------17^^-|
B|-12^^^^---13^^^^-|-15^^^^-17-17------|
G|-----------------|-------------------|
D|-----------------|-------------------|
A|-----------------|-------------------|
E|-----------------|-------------------|

     Am          Am/G
e|---17--15------15-15-15---------|
B|*----------17-------------17-15-|
G|--------------------------------|
D|--------------------------------|
A|*-------------------------------|
E|--------------------------------|

   Am/F#             Am/F                E
e|---------------------------------------------|
B|-----17-15-16^^--15----15^^-----------------*|
G|-17-----------------17-------17-16-17--14^^--|
D|---------------------------------------------|
A|--------------------------------------------*|
E|---------------------------------------------|

   Am                      Am/G
e|----17-15----15-------------17-15----15----------|
B|----------17----17-13-15----------17----17-13-15-|
G|-14----------------------14----------------------|
D|-------------------------------------------------|
A|-------------------------------------------------|
E|-------------------------------------------------|

   Am/F#                   Am/F           E
e|----17-15----15-------------17-15----15----------|
B|----------17----17-13-15----------17----17-13-15-|
G|-14----------------------14----------------------|
D|-------------------------------------------------|
A|-------------------------------------------------|
E|-------------------------------------------------|

   Am                      Am/G
e|-------------------------------------------------|
B|-------------------------------------------------|
G|-------------------------------------------------|
D|-------------------------------------------------|
A|-------------------------------------------------|
E|-------------------------------------------------|

   Am/F#                   Am/F           E
e|-------------------------------------------------|
B|-------------------------------------------------|
G|-------------------------------------------------|
D|-------------------------------------------------|
A|-------------------------------------------------|
E|-------------------------------------------------|

   Am       Am/G     Am/F#  Am/F  E
e|-----------------|--------------17^^-|
B|-12^^^^---13^^^^-|-15^^^^-17-17------|
G|-----------------|-------------------|
D|-----------------|-------------------|
A|-----------------|-------------------|
E|-----------------|-------------------|

    Am  Am/G   Am/F# Am/F E
e|--17-------|-17-----------|
B|*--/-------|--/----------*|
G|---/-------|--/-----------|
D|---/-------|--/-----------|
A|*----------|-------------*|
E|-----------|--------------|

                          x3
    Am  Am/G   Am/F# Am/F E
e|---5-------|--5-----------|
B|*--/-------|--/----------*|
G|---/-------|--/-----------|
D|---/-------|--/-----------|
A|*----------|-------------*|
E|-----------|--------------|

   Am
e|-----------|
B|-----------|
G|-----------|
D|-7^^^------|
A|-----------|
E|-----------|

|A7 - G7|x4

   A7  G7                A7    G7
e|-5-5-----------------|---------------|
B|-5-5-----------------|-10---7--7-7s--|
G|------------7-9b10-7-|----9----------|
D|-----x--7-9----------|---------------|
A|---------------------|---------------|
E|---------------------|---------------|

   A7  G7                A7    G7
e|-5-5-----------------|------------------|
B|-5-5-----------------|-10---------------|
G|------7b8-6------6-8-|-------6----------|
D|-------------5-7-----|-----7---5-7-7-5s-|
A|---------------------|------------------|
E|---------------------|------------------|

|A7 - G7|x4

A        F#m
Buenas y malas son
Bm        E4  E
Cosas que vivo yo
A           F#m
No es esta tierra no
Bm     E4     E
Sueño color azul
  A
Y no es quizás
       Bm
Que no sé mirar
 G
¿Cuanto?
 E
¿Cuanto?
A          F#m
Hay a mi alrededor
Bm            E        E7
más de lo que mis ojos pueden
A           F#m
mirar y llegar a ver
Bm           E        E7
estas son razones que dicen
    A
que solo sé
    Dm
que se querer
    A
que tengo Dios
  Dm
y tengo fé
      A     Bm
y que doy amor
   G
y puedo ser

|A7 - G7|x4

   A7  G7                A7    G7
e|---------------------|---------------|
B|---------------------|---------------|
G|---------------------|---------------|
D|---------------------|---------------|
A|---------------------|---------------|
E|---------------------|---------------|

   A7  G7                A7    G7
e|---------------------|---------------|
B|---------------------|---------------|
G|---------------------|---------------|
D|---------------------|---------------|
A|---------------------|---------------|
E|---------------------|---------------|

|A7 - G7|x4

A            F#m
Dice que en algun lugar
Bm           E4 E
alguien me espera
A             F#m
se que ahora tengo yo
Bm           E
Alguien a quien buscar
  A
Y no es quizás
       Bm
Que no sé mirar
 G
¿cuanto?
 E7
¿cuanto?
A          F#m
Hay a mi alrededor
Bm            E        E7
más de lo que mis ojos pueden
A           F#m
mirar y llegar a ver
Bm           E         E7
estas son razones que dicen
    A
que solo sé
    Dm
que se querer
    A
que tengo Dios
  Dm
y tengo fé
      A     Bm
y que doy amor
   G
y puedo ser

|A7 - G7|x4

   A7  G7                A7    G7
e|---------------------|---------------|
B|---------------------|---------------|
G|---------------------|---------------|
D|---------------------|---------------|
A|---------------------|---------------|
E|---------------------|---------------|

   A7  G7                A7    G7
e|---------------------|---------------|
B|---------------------|---------------|
G|---------------------|---------------|
D|---------------------|---------------|
A|---------------------|---------------|
E|---------------------|---------------|

|A7 - G7|x4


Notación:

n/m slide de traste n a m
p   pull off
h   hammer on
B   bend
r   realise
nsm slide de n a m


Hecho por Luis Loayza
LA Paz - Bolivia
Comentarios y correcciones:
louizloayza@

            
            
Suggest correction
Creating personal tab
Creating personal tab
You can edit any tab online and save it as your Personal.

You can edit, replace or remove any tab part or add personal notes – all changes will be seen only by you.

Personal tabs can be accessed anytime from any device, even offline.
Learn more »
Give kudos to tab author, rate the tab!
1 2 3 4 5
comments
print report bad tab
guest
Wanna post a correction for this tab? Suggest correction