Oops, an error
Loading. Please wait.

Quiero Más De Tí tab

29 views 1 this week
no commentswrite comment
1 2 3 4 5
3 more votes to show rating
add to favorites
×
Save as Personal and add changes to this tab that will be seen only by you. Learn more ›
×
You can save this tab as Personal to edit and correct it or add notes. All changes will be seen only by you. Learn more »
launch autoscroll
font size
0
reset
how to read this tab
guitar tuner
edit
Autoscroll
slow
fast
+/-
esc
set tempo
stop
Solo

E|-------------------------------------------------------------------|
B|------------------------------12h13-12----10-----------------------|
G|-9--10?10h12-12-12--12-12v?12---------12----12?10v?9h10p9----------|
D|----------------------------------------------------------12p10----|
A|---------------------------------------------------------------12v-|
E|-------------------------------------------------------------------|


E|---12-15-12-10----------------(10-12)--------15v-------------------|
B|--10-----------13-10----10-13b---------10p12-----------------------|
G|-10------------------12-------------12v----------------------------|
D|-------------------------------------------------------------------|
A|-------------------------------------------------------------------|
E|-------------------------------------------------------------------|


 NOTACION:

 h: Hammer on o ligado ascendente
 p: Pull off o ligado descendente
 tr: tremolo
 v: vibrato
 /:slice o deslizar
 b(10-12): esto kiere decir ke se estira la cuerda,
 se mantiene la estirada y mientras se mantiene se tocan
  las notas entre parentesis...

            
            
Suggest correction
Creating personal tab
Creating personal tab
You can edit any tab online and save it as your Personal.

You can edit, replace or remove any tab part or add personal notes – all changes will be seen only by you.

Personal tabs can be accessed anytime from any device, even offline.
Learn more »
Give kudos to tab author, rate the tab!
1 2 3 4 5
comments
print report bad tab
guest
Wanna post a correction for this tab? Suggest correction