Oops, an error
Loading. Please wait.

Cuando Vos No Estás tab

14 views 1 this week
no commentswrite comment
1 2 3 4 5
3 more votes to show rating
add to favorites
×
Save as Personal and add changes to this tab that will be seen only by you. Learn more ›
×
You can save this tab as Personal to edit and correct it or add notes. All changes will be seen only by you. Learn more »
launch autoscroll
font size
0
reset
how to read this tab
guitar tuner
edit
Autoscroll
slow
fast
+/-
esc
set tempo
stop
CUANDO NO ESTAS (VS. CLOWN)

Intro: Punteo (sobre los acordes)  
     
    E    B   C#   A
e |----------------------------------------------||
B |----------------------------------------------||
G |--8h9--8h9-8----8--6--8-9-8-6-8-9-8-8-6-8-----||
D |-------------9--------------------------------||
A |----------------------------------------------||
E |----------------------------------------------||

e |----------------------------------------------||
B |----------------------------------------------||
G |--8s9--8h9-11--9--8--8-9-8-6-8-6-8-9-8-8-6-8--||
D |----------------------------------------------||
A |----------------------------------------------||
E |----------------------------------------------||

E                           B
Todos los recuerdos que se parten en mi cara
C#               A
existen para mí y para nadie más
E                       B
y si estoy parado al filo de una avalancha
   C#                      A
si caigo me tendré que volver a levantar.
C#                    A
Pero tengo que encontrar el camino 
C#                  B
veraz un autentico cambio que me eleve.
E        B                C#
La realidad me llevó a pensar
        A             E
que no voy a caer jamás!!

No todos los caminos conducen a Roma
ni toda la vida esperanza nos dá
no estoy tan cerca tampoco tan lejos
si estiro los brazos podría llegar.

Pero siempre se complica por algo
y al final yo comienxo de nuevo a buscar.

La realidad me llevó a pensar
que no voy a caer jamás!!

PUENTE: (E    B   C#   A) x2

Amar callar, después preguntar
¿Qué es lo que sucede cuando vos no estas?
Pensar actuar despues, después olvidar
muriendo tan lento todo duele más!!

SOLO [1:56] con base: E    B   C#   A

e |----------------------------------------------------||
B |----------------------------------------------------||
G |--8s9--8s9-8----8--6--8-9-8-6-8-9-8-8-6-8-----------||
D |-------------9--------------------------------------||
A |----------------------------------------------------||
E |----------------------------------------------------||

e |----------------------------------------------------||
B |----------------------------------------------------||
G |--8s9vv--8h9-11--9--8--8-9-8-9-8-6-6-6-8-9-8-8-6-8--||
D |----------------------------------------------------||
A |----------------------------------------------------||
E |----------------------------------------------------||


Aca les dejo este tema... espero que les sirva...
La verdad es un temazo...
Aguante AEROVENTILAS Punk Rock!!!!
Juan Manuel Varela 'Chaca'

            
            
Suggest correction
Creating personal tab
Creating personal tab
You can edit any tab online and save it as your Personal.

You can edit, replace or remove any tab part or add personal notes – all changes will be seen only by you.

Personal tabs can be accessed anytime from any device, even offline.
Learn more »
Give kudos to tab author, rate the tab!
1 2 3 4 5
comments
print report bad tab
guest
Wanna post a correction for this tab? Suggest correction