Oops, an error
Loading. Please wait.

Devorando El Corazón tab

version 2
version 2

Whole song

Interactive

by WarCry
125 views 3 this week
no commentswrite comment
1 2 3 4 5
3 more votes to show rating
add to favorites
×
Save as Personal and add changes to this tab that will be seen only by you. Learn more ›
×
You can save this tab as Personal to edit and correct it or add notes. All changes will be seen only by you. Learn more »
launch autoscroll
font size
0
reset
how to read this tab
guitar tuner
edit
Autoscroll
slow
fast
+/-
esc
set tempo
stop
Bueno antes que nada, Que decir de esta gran band.... GENIALES!!!
Sus letras... Armonias... y SUS SOLOS!!!! de lo mejor....

Estuve mucho tiempo buscando el tab, y en la web encontre algunos...
de muy buena calidad.. pero ...
SIN EL SOLO!!! que es lo que mas me gusta d esta kncion...

podria haber tomado los tabs e incluirlos junto con el solo...
para darme mayor credito... pero NO!!!...

aqui esta solo lo que YO SAQUE... a oido... pero... la verdad suena bien..


AQUI DEJO EL LINK AL VIDEO, DE COMO SE TOCA ESTE SOLO


************VIDEO******************************************
 <-- para k lo vean y comenten
***********************************************************


Solo 1

tabed by : J. Alonso Rìos Garcìa
dudas...sugerencias o peticiones... halo (halo_af29@


        b        b           b       b
E||-----------------------------------------------------------------|
B||--17--------16----------12-----14-----------------------14--12---|
G||--19(21)----18(20)------14(16)-16(18)----11/13--11--13----------8|
D||-----------------------------------------------------------------|
A||-----------------------------------------------------------------|
E||-----------------------------------------------------------------|

                       b
-------19---17--16----------------|
----17--------------19(21)19------|
--20------------------------------|
----------------------------------|
----------------------------------|
----------------------------------|


 aqui empieza la parte rapida

-------16-17-19-21-19-17-16-19-17-16-14-17-16-14----------
-17-19-------------------------------------------16-17-19-
----------------------------------------------------------
----------------------------------------------------------
----------------------------------------------------------
----------------------------------------------------------


16-19-17-16-14-17-16-14-12-16-14-12-|
------------------------------------|
------------------------------------|
------------------------------------|
------------------------------------|
------------------------------------|


      b
----------------|
--16(18)16------|
-------------13-|
----------------|
----------------|
----------------|

Esta es la parte del sweep

|-----------------------------------16-21-16--------|
|--------------12-17-12-----------17--------17------|
|------------13--------13-------16------------16----|
|----------14------------14---18---------------18---|
|-----11-14-----------------19-------------------19-|
|--12-----------------------------------------------|


      b
----------------|
--16(18)16---12-|
----------------|
----------------|
----------------|
----------------|


------------------------------------|
----------------------16-17-14-16-17|
-------13-16-------16---------------|
-13-14-------14-16------------------|
------------------------------------|
------------------------------------|


---------------------------------------------------------------
-19-21-19-17-16----------19-21-19-17-16---------19-21-19-17-16-
----------------21(23)21----------------21(23)21---------------
---------------------------------------------------------------
---------------------------------------------------------------
---------------------------------------------------------------


------------------------------------
------------------------------------
21(23)21-21(23)21-21(23)21-21(23)21-
------------------------------------
------------------------------------
------------------------------------


-------16-17-16-------16------------------------------------------------
-17-19----------19-17----19-17-16-19-17-16-14-17-16-14-12-16-14-12-10-9-
------------------------------------------------------------------------
------------------------------------------------------------------------
------------------------------------------------------------------------
------------------------------------------------------------------------


----------------------------------------------|
----------------------------------------------|
13-11-9---------------------------------------|
--------13-11-9-8-----------------------------|
------------------11-9-8-11-9-8-11-9-8--------|
---------------------------------------11-9-7-|


EL SOLO 2... es demaciado facil...
y si ya tienen las tabs que ahi en la web...

listo.. ya pueden tocar... Devorando el corazon... YhhhEEeeAA!!!!


Espero que sea de utilidad,tal ves no sea perfecta
,pero la saque de oido,ademas
se escucha muy bien...yo creo XD...
Saludos a
omar,lucia,alejandro,javier. Ale de hillo ^^
Y ami XD SEeEeE..XD...
tambn a Jacksiry,
Navioric(ciro),Shuleta(mi vocal de Torreon)
,mary,Rox,Lulú,Vero(T_T),
edlin(club de los kshetones lindos)
...alain,toño,david...
etc etc...nefi,tony,kike.

y en especial...a mi mujer...FATIMA..TE AMO!!!
...EEADMV...
Mi futura esposa.:D...JPTLV!!!....

            
            
Suggest correction
Creating personal tab
Creating personal tab
You can edit any tab online and save it as your Personal.

You can edit, replace or remove any tab part or add personal notes – all changes will be seen only by you.

Personal tabs can be accessed anytime from any device, even offline.
Learn more »
Give kudos to tab author, rate the tab!
1 2 3 4 5
comments
print report bad tab
guest
Wanna post a correction for this tab? Suggest correction