Oops, an error
Loading. Please wait.

El Guardián De Troya chords

version 1
version 1

Whole song

Interactive

by WarCry
239 views 3 this week
no commentswrite comment
1 2 3 4 5
2 more votes to show rating
add to favorites
×
Save as Personal and add changes to this tab that will be seen only by you. Learn more ›
×
You can save this tab as Personal to edit and correct it or add notes. All changes will be seen only by you. Learn more »
launch autoscroll
font size
0
reset
transpose
0
reset
simplify chords
display chords
guitar tuner
edit
Autoscroll
slow
fast
+/-
esc
set tempo
stop
Strumming
There is no strumming pattern for this song yet. and get +5 IQ
INTRODUCCION (parte acustica)

  intro...
E|---------------------------------------------------|
B|---------------------------------------------------|
G|-------------------------------------2-----2-4-----ª
D|---2-4-5------2-4-5------2-4-5-4-2-5---5-4---------ª
A|-3----------3----------3---------------------------|
E|---------------------------------------------------|

  Guitarra 1
E|----------------------------------------------------|
B|----------------------------------------------------|
G|---2-4-4/5v------4-2/4-4--0------2--0-4-------------|
D|-2--------------------------2---------------0-2-----|
A|----------------------------------------------------|
E|----------------------------------------------------|
    Guitarra 1
E|-------------------------------------------------|
B|-------------------------------------------------|
G|---2-4<5------4/2/4---4----------2---4-----------|
D|-2---------------------5-2---------5---5-2-------|(x2)
A|-------------------------------------------------|
E|-------------------------------------------------|

ENTRA LA GUITARRA ELECTRIKA ASIENDO LO MISMO..PERO EN EL 5 TRASTE DE
LA 5 KUERDA. ((EMPEANDO KON UNA ALAIRE!!))

E|----------------------------------------------------|
B|----------------------------------------------------|
G|----------------------------------------------------|
D|-------------------------------5---5-7--------------|
A|---0-5-7-8-(X2)--0-5-7-8-7-5-8--8-7-----------------!
E|----------------------------------------------------|
  Guitarra 2
E|--------------------------------------------------------|
B|--------------------------------------------------------|
G|--------------------------------------------------------|
D|-0-5-7/8--7/5/7-5-----5--7------------------------------|(X2)
A|-----------------8-5----8-8-5---------------------------|
E|----------------------------------------------------------

ENTRA GUITARRA ELECTRIKA ASIENO QUINTAS...
Y EMPIESA LA KANCION..PARA ACUSTIKA ES ASI-


   Em                 Am
Destino cruel que me obliga a defender
       G                            D    C
los frutos de una traición de un desatino
 Em                   Am
por una mujer todo un reino condenó
         G                          D    Am..
no entiendo la situación ni la he elegido

C                      G
Soy el guardián la llave de mi ciudad
        Am                             B    D..
el que dentro quiera entrar peleara conmigo
C                    G
no hay una razón solo tengo una misión
      Am                      B
combatir hasta el final al enemigo

elektrika
E|---------------------------|
B|---------------------------|
G|---------------------------|
D|-2---7---9---5-5-5-5-54-4-|
A|-2---5---7---3-3-3-3-22-2-|
E|-0-------------------------|

 Em                 Am
Mucho duraria la batalla la presión
       G                            D    C..
nunca han visto un corazón tan vengativo
Em                    Am
no me toca ami el buscar la solución
       G                          D    Am..
solo sigo una razón lucho por los mios

C                      G
Soy el guardián la llave de mi ciudad
        Am                             B    D
el que dentro quiera estar peleara conmigo
C                    G
no hay una razón solo tengo una misión
      Am                      B
combatir hasta el final al enemigo

          Em
Puede que hoy llegue el final
             G              Em
puede que el día yo no vea acabar
       Dm          Am       B               D...
mas si ese es mi destino  no lo haré esperar


para la electrika..son las quintas..

E|---------------------------------------------------|
B|---0---0-1-0---0-----------0-------0-1-0-----------|
G|-0-0-2-0-2-0-2-0-0-2---0-2-0-2-0---0-2-0-2-0---0---|
D|-2---4-------4---2-4-4-2-4---4-2-4-------4-2-4-2---|
A|---------------------5-----------5-----------5-----|
E|---------------------------------------------------|

E|---------------------------------------------------|
B|---0---0-1-0---0-----------0-----------------------|
G|-0-0-2-0-2-0-2-0-0-2---0-2-0-2-0---0-2-------------|
D|-2---4-------4---2-4-4-2-4---4-2-4-2-4-2-0-2-0-----|
A|---------------------5-----------5-----3-2-3-2-3-2-|
E|-----------------------------------------------5-3-|

E|---------------------------------------------------|
B|---0---0-1-0---0-----------0-------0-1-3-1-0-------|
G|-0-0-2-0-2-0-2-0-0-2---0-2-0-2-0---0-2-4-2-0-2-0---|
D|-2---4-------4---2-4-4-2-4---4-2-4-----------4-2---|
A|---------------------5-----------5-----------------|
E|---------------------------------------------------|

E|---------------------------|-------------|
B|---0---0-1-0---0-----------|-------------|
G|-0-0-2-0-2-0-2-0-0-2---0-2-|---------4---|
D|-2---4-------4---2-4-4-2-4-|--7--9---4---|
A|---------------------5-----|--5--7---2---|
E|---------------------------|-------------|


 Base del solo:
E|------------------------------------|
B|------------------------------------|
G|-4--2-4-5-4-7----4--2-4-5-4-7-7-7-7-|
D|-4--2-4-5-4-7----4--2-4-5-4-7-7-7-7-|
A|-2--0-2-3-2-5----2--0-2-3-2-5-5-5-5-|
E|------------------------------------|

E|-----------------------------------------|
B|-----------------------------------------|
G|-4--2-4-5-4-7----4--2-4-5-4--------------|
D|-4--2-4-5-4-7----4--2-4-5-4--------------|
A|-2--0-2-3-2-5----2--0-2-3-2--2-3-0-2-0---|
E|---------------------------------------3-|

E|------------------------------------|
B|------------6---------------6-6-6-6-|
G|-7--5-7-8-7-5----7--5-7-8-7-5-5-5-5-|
D|-7--5-7-8-7-3----7--5-7-8-7-3-3-3-3-|
A|-5--3-5-6-5------5--3-5-6-5---------|
E|------------------------------------|

E|-----------------------------------------|
B|------------6----------------------------|
G|-7--5-7-8-7-5----7--5-7-8-7--------------|
D|-7--5-7-8-7-3----7--5-7-8-7--------------|
A|-5--3-5-6-5------5--3-5-6-5--5-6---5-----|
E|---------------------------------8---8-6-|


         Em             Am
Ya se acabó triste final
            G                      D      C...
caigo en la tierra con una herida mortal
      Dm          Am       B               D...
mas si ese es mi destino  no lo haré esperar

E|---------------|
B|---------------|
G|---------------|
D|-9-9-9-9-9-8-8-8-|
A|-7-7-7-7-7-6-6-6-|
E|---------------|

          Em
siento llegar la oscuridad
          G5                    Em
muero tranquilo he luchado hasta el final
 Dm          Am       Bm   Am            Am...
 por mi hogar doy la vida no puedo ...
...


Em...Am...G...D...CCCCCCC...Em...
dar maaaaaaas!!!!!!!!!!!!!!!!!!!!!!!!!!!!!!!!!!!!!!!!!!


graxias ...
Kabro0nes!!!!!!!!
saludos a perla!! y a ale...jaja
y al david k lo va a leer
advertencia..esto es para acustika!!!


r0ox-._:_-*/-
Suggest correction
Creating personal tab
Creating personal tab
You can edit any tab online and save it as your Personal.

You can edit, replace or remove any tab part or add personal notes – all changes will be seen only by you.

Personal tabs can be accessed anytime from any device, even offline.
Learn more »
Give kudos to tab author, rate the tab!
1 2 3 4 5
comments
print report bad tab
guest
Wanna post a correction for this tab? Suggest correction