Oops, an error
Loading. Please wait.

El Más Triste Adiós tab

version 1
version 1

Whole song

Interactive

by WarCry
351 views 1 this week
no commentswrite comment
1 2 3 4 5
3 more votes to show rating
add to favorites
×
Save as Personal and add changes to this tab that will be seen only by you. Learn more ›
×
You can save this tab as Personal to edit and correct it or add notes. All changes will be seen only by you. Learn more »
launch autoscroll
font size
0
reset
how to read this tab
guitar tuner
edit
Autoscroll
slow
fast
+/-
esc
set tempo
stop
Guitarra 1:

E---------------------------------------------------------I
B---------------------------------------------------------I
G---------------------------------------------------------I
D--------------1---3------4---4---6---1-----3------4------I
A-5-4-2--------1---1--0-1-2---4---4---1-----1--0-1-2------I
E-------5-3-2-----------------2---------------------------I
pm........... (aki entra la guitarra 2)

E---------------------------------------------------------I
B---------------------------------------------------------I
G---------------------------------------------------------I
D-------4------------3------1---3------4---4---6----------I
A----4-----4------3-----3---1---1--0-1-2---4---4----------I
E-2------------1---------------------------2--------------I
pm.......................


E---------------------------------------------------------I
B---------------------------------------------------------I
G---------------------------------------------------------I
D-4--------6-------8-------8-------4*---------------------I
A-2--------4-------6-------8-------2----------------------I
E--------------------------6------------------------------I
                                   (*) dejar sonar

guitarra 2:

E----------------------------------------------------------I
B-4-----6----2--4--2-2----------4----6----4-4/-2*----------I
G----3-----4-----------4--3--------3-----------------------I
D----------------------------------------------------------I
A----------------------------------------------------------I
E----------------------------------------------------------I

E----------------------------------------------------------I
B-4----6-----2--4--2--------------2-4-6-7-6-4-6-4-6 ^7-----I
G----3-----4-----------4--3-----4--------------------------I
D----------------------------------------------------------I
A----------------------------------------------------------I
E----------------------------------------------------------I


lo siguiente son los primeros versos ke se acompaña con el.
 bajo pero suena bien en la guitarra, aki también entra  la.
letra..
(SE HACE DOS VECES HASTA EL SIMBOLO @ ).


   ?mirando al exterior......
E---------------------------------------------------------I
B---------------------------------------------------------I
G---------------------------------------------------------I
D---------------------------------------------------------I
A-2-2--2-2--2-2--2-2----------------------6-6--6-6--6-6---I
E---------------------2-2--2-2--2-2--2-2------------------I

E---------------------------------------------------------I
B---------------------------------------------------------I
G---------------------------------------------------------I
D---------------------------------------------------------I
A-6-6-----------------------------------------------------I
E------6-6--6-6--6-6--6-6---6-@---------------------------I
  ?recordando un pasado en el que.....                X2


tu!!!!!.
E---------------------------------------------------------I
B---------------------------------------------------------I
G---------------------------------------------------------I
D-4-------2--1---------6--4-----------2-----------7-------I
A-2-------1--1---------4--4-----------1-----------5-------I
E-------------------------2-------------------------------I
(ESTO TAMBIEN SE HACE DOS VECES)


ahora viene el segundo verso acompañado de la guitarra electrica:

E---------------------------------------------------------I
B---------------------------------------------------------I
G---------------------------------------------------------I
D-4-4--4-4--4-4--4-4--11-11--11-11--11-11--11-11----------I
A-2-2--2-2--2-2--2-2---9-9----9-9----9-9----8-8-----------I
E---------------------------------------------------------I

E---------------------------------------------------------I
B---------------------------------------------------------I
G---------------------------------------------------------I
D-8-8--8-8--8-8--8-8---8-8--8-8--8-8--8-8-----------------I
A-6-6--6-6--6-6--6-6---8-8--8-8--8-8--8-8-----------------I
E----------------------6-6--6-6--6-6--6-6-----------------I
                                                     X2
Coro:.

?y déjame que te llore en un rincón...

E---------------------------------------------------------I
B---------------------------------------------------------I
G---------------------------------------------------------I
D-1------3-------4----4----6------1-----3----------4------I
A-1------1---0-1-2----4----4------1-----1-----0-1--2------I
E---------------------2-----------------------------------I

E---------------------------------------------------------I
B---------------------------------------------------------I
G---------------------------------------------------------I
D-------4------------3------1---3------4---4---6----------I
A----4-----4------3-----3---1---1--0-1-2---4---4----------I
E-2------------1---------------------------2--------------I
pm.......................

despues del coro biene el solo...no lo he sacado todavía.
 pero estoy en ello...ya lo pasare.

La cancion termina con el coro...cuendo estes sacando el.
 tab es mejor ke lo hagas escuchando la cancion.


nota: esta canción esta afinada en bemol....pero aki
 la. sacamos en afinación Standard para ke no se compliken
con. la afinación...

Pm: palm mute
*: dejar sonar
^ :   full

bueno aki esta nuestra vesion de una cancion preciosa....
ke solo podria salir de la cabeza de victor garcia
un tema para tocar con sentimiento....
dudas, criticas de todo tipo al correo judawarcry@

este tab...se lo kiero de dicar a la chica mas hermosa de. toda españa....
a la chica ke me dio un espcio en su. corazon...alla en alcorcon.
....para ti XaBeL....te kiero.

Att: JUAN (JUDA).

            
            
Suggest correction
Creating personal tab
Creating personal tab
You can edit any tab online and save it as your Personal.

You can edit, replace or remove any tab part or add personal notes – all changes will be seen only by you.

Personal tabs can be accessed anytime from any device, even offline.
Learn more »
Give kudos to tab author, rate the tab!
1 2 3 4 5
comments
print report bad tab
guest
Wanna post a correction for this tab? Suggest correction