Oops, an error
Loading. Please wait.

El Más Triste Adiós tab

version 4
version 4

Whole song

Interactive

by WarCry
167 views 3 this week
no commentswrite comment
1 2 3 4 5
3 more votes to show rating
add to favorites
×
Save as Personal and add changes to this tab that will be seen only by you. Learn more ›
×
You can save this tab as Personal to edit and correct it or add notes. All changes will be seen only by you. Learn more »
launch autoscroll
font size
0
reset
how to read this tab
guitar tuner
edit
Autoscroll
slow
fast
+/-
esc
set tempo
stop
hola gente yo otra vez aca dejando el solo del mas triste adios
de esta gran banda española bueno gente saludos cuidenses
espero que les sirva aguante el metal!!!!!!!!!!!cualquier queja
enelbaldio_lea73@

1|-------------------|--------------------|
2|-15b--15b----------|----------------12--|
3|-14---14----14-12--|--14b/(16)v---12----|
4|-------------------|------------14------|
5|-------------------|--------------------|
6|-------------------|--------------------|

                              P.H----|
1|-----------------------|----------------------|
2|-15b--15-12-%-12br-10--|----------------------|
3|-----------------------|-11-12h12br--11-------|
4|-----------------------|----------------12----|
5|-----------------------|-------------------14-|
6|-----------------------|----------------------|

1|-------------|--------------|-----------|
2|-------------|--------------|-----------|
3|------1211--|-11-7---------|-9vv--5-7--|
4|-14v---------|-------9--7-9-|-----------|
5|-------------|--------------|-----------|
6|-------------|--------------|-----------|

  P.M ----------------------|   P.m--|
1|--------------------------|---------------|-------------|
2|--------------------------|---------------|-------------|
3|-9-7-5--------------------|---------------|-------------|
4|--------9-7-5-9-7-5-------|---------------|-------------|
5|--------------------9-7-5-|-5-7vv---10-7--|-9b-10-5v--5-|
6|--------------------------|---------------|-------------|

1|---------------|---------------|
2|---------------|---------------|
3|---------------|---------------|
4|---------------|---------------|
5|-5/2-3--3/5--2-|---------------|
6|---------------|-5-3-2--3/93--|

1|-------------------------------------------------|
2|-----------------------------------------------7-|
3|----------------------------4-5-7-5-4------------|
4|-------4-5-7-5-4----------------------7-5-4-5-7--|
5|-----------------7-5-3-5-7-----------------------|
6|-3-5-7-------------------------------------------|

1|--------------------7-8-10-8-7--------10bfull----|
2|-8-10-8-7----------------------10-8-7------------|
3|----------9-7-5-7-9------------------------------|
4|-------------------------------------------------|
5|-------------------------------------------------|
6|-------------------------------------------------|

1|----------|-5--7--7b--|--7--------|---------------|
2|-10bfull--|-----------|-----8-----|---8-7---------|
3|----------|-----------|--------7--|--------9-8-9--|
4|----------|-----------|-----------|---------------|
5|----------|-----------|-----------|---------------|
6|----------|-----------|-----------|---------------|

1|-----------------7-|--8-11--8-12L--|-L(12)v--|
2|-7-8-10-8-7-8-10---|---------------|---------|
3|-------------------|---------------|---------|
4|-------------------|---------------|---------|
5|-------------------|---------------|---------|
6|-------------------|---------------|---------|

            
            
Suggest correction
Creating personal tab
Creating personal tab
You can edit any tab online and save it as your Personal.

You can edit, replace or remove any tab part or add personal notes – all changes will be seen only by you.

Personal tabs can be accessed anytime from any device, even offline.
Learn more »
Give kudos to tab author, rate the tab!
1 2 3 4 5
comments
print report bad tab
guest
Wanna post a correction for this tab? Suggest correction